  0
SECTION
  2
HEADER
  9
$ACADVER
  1
AC1009
  9
$INSBASE
 10
0
 20
0
 30
0
  9
$EXTMIN
 10
0
 20
0
  9
$EXTMAX
 10
420
 20
297
  9
$LIMMIN
 10
0
 20
0
  9
$LIMMAX
 10
420
 20
297
  9
$LTSCALE
 40
1
  0
ENDSEC
  0
SECTION
  2
TABLES
  0
TABLE
  2
LTYPE
 70
     9
  0
LTYPE
  2
CONTINUOUS
 70
    64
  3
実線
 72
    65
 73
     0
 40
0.0
  0
LTYPE
  2
DASHED1
 70
    64
  3
--  --  --  --  --  --  --  --  
 72
    65
 73
     2
 40
2.5
 49
1.25
 49
-1.25
  0
LTYPE
  2
DASHED2
 70
    64
  3
----    ----    ----    ----    
 72
    65
 73
     2
 40
5.0
 49
2.5
 49
-2.5
  0
LTYPE
  2
DASHED3
 70
    64
  3
------  ------  ------  ------  
 72
    65
 73
     2
 40
5.0
 49
3.75
 49
-1.25
  0
LTYPE
  2
CENTER1
 70
    64
  3
----- - ----- - ----- - ----- - 
 72
    65
 73
     4
 40
10.0
 49
6.25
 49
-1.25
 49
1.25
 49
-1.25
  0
LTYPE
  2
CENTER2
 70
    64
  3
----------  --  ----------  --  
 72
    65
 73
     4
 40
20.0
 49
12.5
 49
-2.5
 49
2.5
 49
-2.5
  0
LTYPE
  2
PHANTOM1
 70
    64
  3
--- - - --- - - --- - - --- - - 
 72
    65
 73
     6
 40
10.0
 49
3.25
 49
-1.25
 49
1.25
 49
-1.25
 49
1.25
 49
-1.25
  0
LTYPE
  2
PHANTOM2
 70
    64
  3
--------  -  -  --------  -  -  
 72
    65
 73
     6
 40
20.0
 49
10.0
 49
-2.5
 49
1.25
 49
-2.5
 49
1.25
 49
-2.5
  0
LTYPE
  2
DOT
 70
    64
  3
-   -   -   -   -   -   -   -   
 72
    65
 73
     2
 40
2.5
 49
0.625
 49
-1.875
  0
LTYPE
  2
DUMMY
 70
    64
  3
ダミー
 72
    65
 73
     0
 40
0.0
  0
LTYPE
  2
RAND1
 70
    64
  3
ランダム線1
 72
    65
 73
     4
 40
10.0
 49
1.0
 49
-2.0
 49
3.0
 49
-4.0
  0
LTYPE
  2
RAND2
 70
    64
  3
ランダム線2
 72
    65
 73
     4
 40
14.0
 49
2.0
 49
-3.0
 49
4.0
 49
-5.0
  0
LTYPE
  2
RAND3
 70
    64
  3
ランダム線3
 72
    65
 73
     4
 40
18.0
 49
3.0
 49
-4.0
 49
5.0
 49
-6.0
  0
LTYPE
  2
RAND4
 70
    64
  3
ランダム線4
 72
    65
 73
     4
 40
22.0
 49
4.0
 49
-5.0
 49
6.0
 49
-7.0
  0
LTYPE
  2
RAND5
 70
    64
  3
ランダム線5
 72
    65
 73
     4
 40
26.0
 49
5.0
 49
-6.0
 49
7.0
 49
-8.0
  0
LTYPE
  2
LONG1
 70
    64
  3
----------  --  ----------  --  
 72
    65
 73
     4
 40
40.0
 49
32.5
 49
-2.5
 49
2.5
 49
-2.5
  0
LTYPE
  2
LONG2
 70
    64
  3
--------  -  -  --------  -  -  
 72
    65
 73
     6
 40
40.0
 49
30.0
 49
-2.5
 49
1.25
 49
-2.5
 49
1.25
 49
-2.5
  0
LTYPE
  2
LONG3
 70
    64
  3
+++++++++++++++..+++++++++++++++
 72
    65
 73
     2
 40
40.0
 49
37.5
 49
-2.5
  0
LTYPE
  2
LONG4
 70
    64
  3
+++++++++++++++..+++++++++++++++
 72
    65
 73
     2
 40
80.0
 49
75.0
 49
-5.0
  0
LTYPE
  2
LONG5
 70
    64
  3
----------  --  ----------  --  
 72
    65
 73
     4
 40
60.0
 49
37.5
 49
-7.5
 49
7.5
 49
-7.5
  0
LTYPE
  2
dashed
 70
   64
  3
-------   -------------   ------
 72
   65
 73
    2
 40
7.5
 49
6
 49
-1.5
  0
LTYPE
  2
dashed_spaced
 70
   64
  3
----        --------        ----
 72
   65
 73
    2
 40
12
 49
6
 49
-6
  0
LTYPE
  2
long_dashed_dotted
 70
   64
  3
------------- --- --------------
 72
   65
 73
    4
 40
15.25
 49
12
 49
-1.5
 49
0.25
 49
-1.5
  0
LTYPE
  2
long_dashed_double-dotted
 70
   64
  3
----------- --- --- ------------
 72
   65
 73
    6
 40
17
 49
12
 49
-1.5
 49
0.25
 49
-1.5
 49
0.25
 49
-1.5
  0
LTYPE
  2
long_dashed_triplicate-dotted
 70
   64
  3
--------- --- --- --- ----------
 72
   65
 73
    8
 40
18.75
 49
12
 49
-1.5
 49
0.25
 49
-1.5
 49
0.25
 49
-1.5
 49
0.25
 49
-1.5
  0
LTYPE
  2
dotted
 70
   64
  3
   -       -       -       -    
 72
   65
 73
    2
 40
1.75
 49
0.25
 49
-1.5
  0
LTYPE
  2
chain
 70
   64
  3
-------------- -- --------------
 72
   65
 73
    4
 40
18.5
 49
12
 49
-1.5
 49
3.5
 49
-1.5
  0
LTYPE
  2
chain_double_dash
 70
   64
  3
------------ -- -- -------------
 72
   65
 73
    6
 40
23.5
 49
12
 49
-1.5
 49
3.5
 49
-1.5
 49
3.5
 49
-1.5
  0
LTYPE
  2
dashed_dotted
 70
   64
  3
-----------     -     ----------
 72
   65
 73
    4
 40
9.25
 49
6
 49
-1.5
 49
0.25
 49
-1.5
  0
LTYPE
  2
double-dashed_dotted
 70
   64
  3
------   -----------   -   -----
 72
   65
 73
    6
 40
16.75
 49
6
 49
-1.5
 49
6
 49
-1.5
 49
0.25
 49
-1.5
  0
LTYPE
  2
dashed_double-dotted
 70
   64
  3
---------    -    -    ---------
 72
   65
 73
    6
 40
11
 49
6
 49
-1.5
 49
0.25
 49
-1.5
 49
0.25
 49
-1.5
  0
LTYPE
  2
double-dashed_double-dotted
 70
   64
  3
-----   ---------   -   -   ----
 72
   65
 73
    8
 40
18.5
 49
6
 49
-1.5
 49
6
 49
-1.5
 49
0.25
 49
-1.5
 49
0.25
 49
-1.5
  0
LTYPE
  2
dashed_triplicate-dotted
 70
   64
  3
-------    -    -    -    ------
 72
   65
 73
    8
 40
12.75
 49
6
 49
-1.5
 49
0.25
 49
-1.5
 49
0.25
 49
-1.5
 49
0.25
 49
-1.5
  0
LTYPE
  2
double-dashed_triplicate-dotted
 70
   64
  3
-----  ---------  -  -  -  -----
 72
   65
 73
   10
 40
20.25
 49
6
 49
-1.5
 49
6
 49
-1.5
 49
0.25
 49
-1.5
 49
0.25
 49
-1.5
 49
0.25
 49
-1.5
  0
LTYPE
  2
undefined
 70
   64
  3
--------------------------------
 72
   65
 73
    0
 40
0
  0
ENDTAB
  0
TABLE
  2
STYLE
  5
3
100
AcDbSymbolTable
 70
     1
  0
STYLE
  5
10
100
AcDbSymbolTableRecord
100
AcDbTextStyleTableRecord
  2
STANDARD
 70
     0
 40
0.0
 41
1.0
 50
0.0
 71
     0
 42
0.2
  3
txt
  4
bigfont.shx
  0
STYLE
  5
26
100
AcDbSymbolTableRecord
100
AcDbTextStyleTableRecord
  2
TATEGAKI
 70
    68
 40
0.0
 41
1.0
 50
0.0
 71
     0
 42
1.0
  3
txt
  4
bigfont.shx
  0
ENDTAB
  0
TABLE
  2
LAYER
 70
    6
  0
LAYER
  2
_0-0_
 70
   64
 62
    7
  6
CONTINUOUS
  0
LAYER
  2
_0-1_コンバ__タ
 70
   64
 62
    7
  6
CONTINUOUS
  0
LAYER
  2
_0-2_ケ__ブル付コネクタ
 70
   64
 62
    7
  6
CONTINUOUS
  0
LAYER
  2
_1-f_文字
 70
   64
 62
    7
  6
CONTINUOUS
  0
LAYER
  2
_f-0_
 70
   64
 62
    7
  6
CONTINUOUS
  0
LAYER
  2
ADD_LINE
 70
   64
 62
    7
  6
CONTINUOUS
  0
ENDTAB
  0
ENDSEC
  0
SECTION
  2
BLOCKS
  0
ENDSEC
  0
SECTION
  2
ENTITIES
  0
LINE
  8
_f-0_
  6
CONTINUOUS
 62
    7
 10
109.78405037999403
 20
19.753673987234208
 11
409.76908624052862
 21
19.753673987234208
  0
LINE
  8
_f-0_
  6
CONTINUOUS
 62
    7
 10
109.78405037999403
 20
26.420340653900865
 11
409.76908624052862
 21
26.420340653900865
  0
LINE
  8
_f-0_
  6
CONTINUOUS
 62
    7
 10
109.78405037999403
 20
13.087007320567523
 11
409.76908624052862
 21
13.087007320567523
  0
LINE
  8
_f-0_
  6
CONTINUOUS
 62
    7
 10
109.78405037999403
 20
33.087007320567551
 11
109.78405037999403
 21
6.4199999999999591
  0
TEXT
  8
_f-0_
 62
    7
 10
43.187147164566454
 20
282.70418105701384
 40
3.1999999999999318
 41
1.1810000000000254
 50
0
  1
Ａ
  0
TEXT
  8
_f-0_
 62
    7
 10
93.187147164566454
 20
282.70418105701384
 40
3.1999999999999318
 41
1.1810000000000254
 50
0
  1
Ｂ
  0
TEXT
  8
_f-0_
 62
    7
 10
143.1871471645664
 20
282.70418105701384
 40
3.1999999999999318
 41
1.1810000000000254
 50
0
  1
Ｃ
  0
TEXT
  8
_f-0_
 62
    7
 10
193.1871471645664
 20
282.70418105701384
 40
3.1999999999999318
 41
1.1810000000000254
 50
0
  1
Ｄ
  0
TEXT
  8
_f-0_
 62
    7
 10
243.18714716456628
 20
282.70418105701384
 40
3.1999999999999318
 41
1.1810000000000254
 50
0
  1
Ｅ
  0
TEXT
  8
_f-0_
 62
    7
 10
293.18714716456628
 20
282.70418105701384
 40
3.1999999999999318
 41
1.1810000000000254
 50
0
  1
Ｆ
  0
TEXT
  8
_f-0_
 62
    7
 10
343.18714716456628
 20
282.70418105701384
 40
3.1999999999999318
 41
1.1810000000000254
 50
0
  1
Ｇ
  0
TEXT
  8
_f-0_
 62
    7
 10
393.18714716456628
 20
282.70418105701384
 40
3.1999999999999318
 41
1.1810000000000254
 50
0
  1
Ｈ
  0
LINE
  8
_f-0_
  6
CONTINUOUS
 62
    7
 10
69.787147164566477
 20
281.41999999999996
 11
69.787147164566477
 21
283.41999999999996
  0
LINE
  8
_f-0_
  6
CONTINUOUS
 62
    7
 10
119.78714716456648
 20
281.41999999999996
 11
119.78714716456648
 21
283.41999999999996
  0
LINE
  8
_f-0_
  6
CONTINUOUS
 62
    7
 10
169.78714716456645
 20
281.41999999999996
 11
169.78714716456645
 21
283.41999999999996
  0
LINE
  8
_f-0_
  6
CONTINUOUS
 62
    7
 10
219.78714716456648
 20
281.41999999999996
 11
219.78714716456648
 21
283.41999999999996
  0
LINE
  8
_f-0_
  6
CONTINUOUS
 62
    7
 10
269.78714716456648
 20
281.41999999999996
 11
269.78714716456648
 21
283.41999999999996
  0
LINE
  8
_f-0_
  6
CONTINUOUS
 62
    7
 10
319.78714716456648
 20
281.41999999999996
 11
319.78714716456648
 21
283.41999999999996
  0
LINE
  8
_f-0_
  6
CONTINUOUS
 62
    7
 10
369.78714716456648
 20
281.41999999999996
 11
369.78714716456648
 21
283.41999999999996
  0
LINE
  8
_f-0_
  6
CONTINUOUS
 62
    7
 10
409.76908624052862
 20
6.4199999999999591
 11
409.76908624052862
 21
281.41999999999996
  0
LINE
  8
_f-0_
  6
CONTINUOUS
 62
    7
 10
17.769086240528623
 20
231.30418105701375
 11
19.769086240528623
 21
231.30418105701375
  0
LINE
  8
_f-0_
  6
CONTINUOUS
 62
    7
 10
17.769086240528623
 20
181.30418105701375
 11
19.769086240528623
 21
181.30418105701375
  0
LINE
  8
_f-0_
  6
CONTINUOUS
 62
    7
 10
17.769086240528623
 20
131.30418105701375
 11
19.769086240528623
 21
131.30418105701375
  0
LINE
  8
_f-0_
  6
CONTINUOUS
 62
    7
 10
17.769086240528623
 20
81.30418105701375
 11
19.769086240528623
 21
81.30418105701375
  0
TEXT
  8
_f-0_
 62
    7
 10
15.1690862405286
 20
254.70418105701378
 40
3.2000000000000171
 41
1.1809999999999938
 50
0
  1
１
  0
TEXT
  8
_f-0_
 62
    7
 10
15.1690862405286
 20
204.70418105701373
 40
3.2000000000000171
 41
1.1809999999999938
 50
0
  1
２
  0
TEXT
  8
_f-0_
 62
    7
 10
15.1690862405286
 20
154.70418105701376
 40
3.1999999999999886
 41
1.1810000000000043
 50
0
  1
３
  0
TEXT
  8
_f-0_
 62
    7
 10
15.1690862405286
 20
104.70418105701374
 40
3.2000000000000171
 41
1.1809999999999938
 50
0
  1
４
  0
TEXT
  8
_f-0_
 62
    7
 10
15.1690862405286
 20
54.704181057013756
 40
3.1999999999999886
 41
1.1810000000000043
 50
0
  1
５
  0
LINE
  8
_f-0_
  6
CONTINUOUS
 62
    7
 10
19.769086240528623
 20
6.4199999999999591
 11
409.76908624052862
 21
6.4199999999999591
  0
LINE
  8
_f-0_
  6
CONTINUOUS
 62
    7
 10
19.769086240528623
 20
6.4199999999999591
 11
19.769086240528623
 21
281.41999999999996
  0
LINE
  8
_f-0_
  6
CONTINUOUS
 62
    7
 10
19.769086240528623
 20
281.41999999999996
 11
409.76908624052862
 21
281.41999999999996
  0
LINE
  8
_f-0_
  6
CONTINUOUS
 62
    7
 10
234.78714716456645
 20
33.087007320567551
 11
234.78714716456645
 21
6.4199999999999591
  0
LINE
  8
_f-0_
  6
CONTINUOUS
 62
    7
 10
269.78714716456648
 20
33.087007320567551
 11
269.78714716456648
 21
6.4199999999999591
  0
LINE
  8
_f-0_
  6
CONTINUOUS
 62
    7
 10
284.76908624052862
 20
33.087007320567551
 11
284.76908624052862
 21
6.4199999999999591
  0
LINE
  8
_f-0_
  6
CONTINUOUS
 62
    7
 10
309.76908624052862
 20
33.087007320567551
 11
309.76908624052862
 21
6.4199999999999591
  0
LINE
  8
_f-0_
  6
CONTINUOUS
 62
    7
 10
254.76908624052862
 20
33.087007320567551
 11
254.76908624052862
 21
6.4199999999999591
  0
LINE
  8
_f-0_
  6
CONTINUOUS
 62
    7
 10
119.76908624052862
 20
33.087007320567551
 11
119.76908624052862
 21
6.4199999999999591
  0
LINE
  8
_f-0_
  6
CONTINUOUS
 62
    7
 10
219.76908624052865
 20
33.087007320567551
 11
219.76908624052865
 21
6.4199999999999591
  0
LINE
  8
_f-0_
  6
CONTINUOUS
 62
    7
 10
19.769086240528623
 20
33.087007320567551
 11
409.76908624052862
 21
33.087007320567551
  0
LINE
  8
_f-0_
  6
CONTINUOUS
 62
    7
 10
324.76908624052862
 20
13.086666666666531
 11
324.76908624052862
 21
33.087007320567551
  0
TEXT
  8
_0-0_
 62
    7
 10
312.26908624052862
 20
28.253333333333302
 40
3
 41
1
 50
0
  1
納入先
  0
TEXT
  8
_0-0_
 62
    7
 10
310.51908624052862
 20
21.586666666666645
 40
3
 41
1
 50
0
  1
図面番号
  0
TEXT
  8
_0-0_
 62
    7
 10
310.51908624052862
 20
14.919999999999959
 40
3
 41
1
 50
0
  1
図面名称
  0
TEXT
  8
_0-0_
 62
    7
 10
286.51908624052862
 20
28.253333333333302
 40
3
 41
1
 50
0
  1
尺度
  0
TEXT
  8
_0-0_
 62
    7
 10
275.7690862405284
 20
28.253333333333302
 40
3
 41
1
 50
0
  1
１
  0
TEXT
  8
_0-0_
 62
    7
 10
257.14408624052862
 20
28.253333333333302
 40
3
 41
1
 50
0
  1
ｼｰﾄNo.
  0
TEXT
  8
_0-0_
 62
    7
 10
259.01908624052862
 20
21.586666666666645
 40
3
 41
1
 50
0
  1
承認
  0
TEXT
  8
_0-0_
 62
    7
 10
259.01908624052862
 20
14.919999999999959
 40
3
 41
1
 50
0
  1
審査
  0
TEXT
  8
_0-0_
 62
    7
 10
259.01908624052862
 20
8.2533333333332735
 40
3
 41
1
 50
0
  1
製図
  0
TEXT
  8
_0-0_
 62
    7
 10
238.01908624052868
 20
8.2533333333333303
 40
3
 41
1
 50
0
  1
改定日付
  0
TEXT
  8
_0-0_
 62
    7
 10
222.26908624052868
 20
8.2533333333332735
 40
3
 41
1
 50
0
  1
改定者
  0
TEXT
  8
_0-0_
 62
    7
 10
163.01908624052862
 20
8.2533333333333303
 40
3
 41
1
 50
0
  1
改定内容
  0
TEXT
  8
_0-0_
 62
    7
 10
110.51908624052862
 20
8.2533333333333303
 40
3
 41
1
 50
0
  1
Ｎｏ.
  0
TEXT
  8
_0-0_
 62
    7
 10
113.26908624052862
 20
14.919999999999959
 40
3
 41
1
 50
0
  1
１
  0
TEXT
  8
_0-0_
 62
    7
 10
113.26908624052862
 20
21.586666666666645
 40
3
 41
1
 50
0
  1
２
  0
TEXT
  8
_0-0_
 62
    7
 10
113.26908624052862
 20
28.253333333333302
 40
3
 41
1
 50
0
  1
３
  0
LINE
  8
_0-0_
  6
CONTINUOUS
 62
    3
 10
114.7690862405293
 20
31.982168554635678
 11
112.2690862405293
 21
27.652040838570656
  0
LINE
  8
_0-0_
  6
CONTINUOUS
 62
    3
 10
112.2690862405293
 20
27.652040838570656
 11
117.26908624052732
 21
27.652040838570656
  0
LINE
  8
_0-0_
  6
CONTINUOUS
 62
    3
 10
117.26908624052732
 20
27.652040838570656
 11
114.7690862405293
 21
31.982168554635678
  0
LINE
  8
_0-0_
  6
CONTINUOUS
 62
    3
 10
114.7690862405293
 20
25.482172369332659
 11
112.2690862405293
 21
21.152042745919687
  0
LINE
  8
_0-0_
  6
CONTINUOUS
 62
    3
 10
112.2690862405293
 20
21.152042745919687
 11
117.26908624052732
 21
21.152042745919687
  0
LINE
  8
_0-0_
  6
CONTINUOUS
 62
    3
 10
117.26908624052732
 20
21.152042745919687
 11
114.7690862405293
 21
25.482172369332659
  0
LINE
  8
_0-0_
  6
CONTINUOUS
 62
    3
 10
114.7690862405293
 20
18.982170461983685
 11
112.2690862405293
 21
14.652042745919687
  0
LINE
  8
_0-0_
  6
CONTINUOUS
 62
    3
 10
112.2690862405293
 20
14.652042745919687
 11
117.26908624052732
 21
14.652042745919687
  0
LINE
  8
_0-0_
  6
CONTINUOUS
 62
    3
 10
117.26908624052732
 20
14.652042745919687
 11
114.7690862405293
 21
18.982170461983685
  0
TEXT
  8
_0-0_
 62
    7
 10
300.53714716672653
 20
28.102305636745882
 40
3
 41
1
 50
0
  1
／
  0
TEXT
  8
_0-0_
 62
    7
 10
294.78714716456648
 20
31.649032838784905
 40
2.5
 41
1.0000000000000058
 50
0
  1
　
  0
TEXT
  8
_0-0_
 62
    7
 10
299.01661085778369
 20
29.592804138452095
 40
3
 41
1
 50
0
  1
1
  0
TEXT
  8
_0-0_
 62
    7
 10
349.26908624052862
 20
8.2533333333333303
 40
3
 41
1
 50
0
  1
Ｇｅｏｔｓ
  0
TEXT
  8
_0-0_
 62
    7
 10
290.51908624052862
 20
21.586836993617126
 40
2.9999999999999716
 41
1.0000000000000095
 50
0
  1
'  .  .  
  0
LINE
  8
_0-0_
  6
CONTINUOUS
 62
    7
 10
56.038172481057245
 20
126.66499999999996
 11
56.038172481057245
 21
117.66500000000002
  0
LINE
  8
_0-0_
  6
CONTINUOUS
 62
    7
 10
56.038172481057245
 20
126.66499999999996
 11
54.038172481057245
 21
128.66499999999996
  0
LINE
  8
_0-0_
  6
CONTINUOUS
 62
    7
 10
54.038172481057245
 20
128.66499999999996
 11
52.638172481057268
 21
128.66499999999996
  0
LINE
  8
_0-0_
  6
CONTINUOUS
 62
    7
 10
43.038172481057245
 20
126.66499999999996
 11
43.038172481057245
 21
117.66500000000002
  0
LINE
  8
_0-0_
  6
CONTINUOUS
 62
    7
 10
43.038172481057245
 20
126.66499999999996
 11
45.038172481057245
 21
128.66499999999996
  0
LINE
  8
_0-0_
  6
CONTINUOUS
 62
    7
 10
45.038172481057245
 20
128.66499999999996
 11
46.438172481057222
 21
128.66499999999996
  0
LINE
  8
_0-0_
  6
CONTINUOUS
 62
    7
 10
56.038172481057245
 20
117.66500000000002
 11
43.038172481057245
 21
117.66500000000002
  0
LINE
  8
_0-0_
  6
CONTINUOUS
 62
    7
 10
46.488172481057234
 20
128.55500000000001
 11
52.588172481057256
 21
128.55500000000001
  0
LINE
  8
_1-f_文字
  6
CONTINUOUS
 62
    7
 10
369.76908624052862
 20
41.419999999999959
 11
369.76908624052862
 21
81.419999999999959
  0
LINE
  8
_1-f_文字
  6
CONTINUOUS
 62
    7
 10
399.76908624052862
 20
81.419999999999959
 11
399.76908624052862
 21
41.419999999999959
  0
LINE
  8
_0-0_
  6
CONTINUOUS
 62
    7
 10
176.88817248105724
 20
98.019999999999953
 11
175.38817248105724
 21
98.019999999999982
  0
LINE
  8
_0-0_
  6
CONTINUOUS
 62
    7
 10
175.38817248105724
 20
98.019999999999982
 11
175.38817248105724
 21
100.81999999999998
  0
LINE
  8
_0-0_
  6
CONTINUOUS
 62
    7
 10
178.28817248105722
 20
60.480000000000047
 11
178.28817248105725
 21
86.919999999999987
  0
LINE
  8
_0-0_
  6
CONTINUOUS
 62
    7
 10
160.78817248105725
 20
86.919999999999987
 11
160.78817248105725
 21
60.480000000000047
  0
ARC
  8
_0-0_
  6
CONTINUOUS
 62
    7
 10
169.53817248105722
 20
80.629910993832198
 40
16.805697903616981
 50
74.444050991482413
 51
105.5559490085175
  0
LINE
  8
_0-0_
  6
CONTINUOUS
 62
    7
 10
160.78817248105725
 20
86.919999999999987
 11
178.28817248105725
 21
86.919999999999987
  0
LINE
  8
_0-0_
  6
CONTINUOUS
 62
    7
 10
160.78817248105725
 20
87.119999999999976
 11
178.28817248105725
 21
87.119999999999976
  0
LINE
  8
_0-0_
  6
CONTINUOUS
 62
    7
 10
174.04511157538724
 20
91.820000000000022
 11
165.03123338672725
 21
91.820000000000022
  0
LINE
  8
_0-0_
  6
CONTINUOUS
 62
    7
 10
162.18817248105725
 20
97.519999999999982
 11
176.88817248105727
 21
97.519999999999982
  0
LINE
  8
_0-0_
  6
CONTINUOUS
 62
    7
 10
162.08817248105726
 20
102.81999999999998
 11
176.98817248105723
 21
102.81999999999998
  0
LINE
  8
_0-0_
  6
CONTINUOUS
 62
    7
 10
162.08817248105726
 20
109.32000000000001
 11
176.98817248105723
 21
109.31999999999999
  0
LINE
  8
_0-0_
  6
CONTINUOUS
 62
    7
 10
162.18817248105725
 20
100.82000000000002
 11
175.38817248105724
 21
100.81999999999998
  0
LINE
  8
_0-0_
  6
CONTINUOUS
 62
    7
 10
163.53817248105725
 20
113.81999999999999
 11
175.53817248105725
 21
113.81999999999999
  0
LINE
  8
_0-0_
  6
CONTINUOUS
 62
    7
 10
164.23817248105723
 20
117.31999999999998
 11
174.83817248105726
 21
117.31999999999998
  0
LINE
  8
_0-0_
  6
CONTINUOUS
 62
    7
 10
164.23817248105723
 20
118.47999999999999
 11
174.83817248105726
 21
118.47999999999999
  0
LINE
  8
_0-0_
  6
CONTINUOUS
 62
    7
 10
164.23817248105723
 20
117.51999999999997
 11
174.83817248105726
 21
117.51999999999997
  0
LINE
  8
_0-0_
  6
CONTINUOUS
 62
    7
 10
163.53817248105725
 20
113.81999999999999
 11
163.53817248105725
 21
109.32000000000001
  0
LINE
  8
_0-0_
  6
CONTINUOUS
 62
    7
 10
164.23817248105723
 20
117.31999999999998
 11
164.23817248105723
 21
113.81999999999999
  0
LINE
  8
_0-0_
  6
CONTINUOUS
 62
    7
 10
164.23817248105723
 20
118.47999999999999
 11
164.23817248105723
 21
117.51999999999997
  0
LINE
  8
_0-0_
  6
CONTINUOUS
 62
    7
 10
164.43817248105725
 20
117.51999999999997
 11
164.43817248105725
 21
117.31999999999998
  0
LINE
  8
_0-0_
  6
CONTINUOUS
 62
    7
 10
162.08817248105726
 20
109.32000000000001
 11
162.08817248105726
 21
102.81999999999998
  0
LINE
  8
_0-0_
  6
CONTINUOUS
 62
    7
 10
164.13817248105727
 20
102.81999999999998
 11
164.13817248105727
 21
100.81999999999998
  0
LINE
  8
_0-0_
  6
CONTINUOUS
 62
    7
 10
160.78817248105725
 20
96.820000000000007
 11
160.78817248105725
 21
87.119999999999976
  0
LINE
  8
_0-0_
  6
CONTINUOUS
 62
    7
 10
160.78817248105725
 20
96.820000000000007
 11
165.03123338672725
 21
96.820000000000022
  0
LINE
  8
_0-0_
  6
CONTINUOUS
 62
    7
 10
162.18817248105725
 20
97.519999999999982
 11
160.78817248105725
 21
96.820000000000007
  0
LINE
  8
_0-0_
  6
CONTINUOUS
 62
    7
 10
162.18817248105725
 20
100.82000000000002
 11
162.18817248105725
 21
97.519999999999982
  0
LINE
  8
_0-0_
  6
CONTINUOUS
 62
    7
 10
165.03123338672725
 20
91.820000000000022
 11
165.03123338672725
 21
96.820000000000022
  0
LINE
  8
_0-0_
  6
CONTINUOUS
 62
    7
 10
161.78817248105725
 20
87.119999999999976
 11
161.78817248105725
 21
86.919999999999987
  0
LINE
  8
_0-0_
  6
CONTINUOUS
 62
    7
 10
176.88817248105727
 20
97.519999999999982
 11
176.88817248105724
 21
98.019999999999953
  0
LINE
  8
_0-0_
  6
CONTINUOUS
 62
    7
 10
175.53817248105725
 20
109.31999999999999
 11
175.53817248105725
 21
113.81999999999999
  0
LINE
  8
_0-0_
  6
CONTINUOUS
 62
    7
 10
174.83817248105726
 20
113.81999999999999
 11
174.83817248105726
 21
117.31999999999998
  0
LINE
  8
_0-0_
  6
CONTINUOUS
 62
    7
 10
174.83817248105726
 20
117.51999999999997
 11
174.83817248105726
 21
118.47999999999999
  0
LINE
  8
_0-0_
  6
CONTINUOUS
 62
    7
 10
174.63817248105724
 20
117.31999999999998
 11
174.63817248105724
 21
117.51999999999997
  0
LINE
  8
_0-0_
  6
CONTINUOUS
 62
    7
 10
174.93817248105725
 20
100.81999999999998
 11
174.93817248105725
 21
102.81999999999998
  0
LINE
  8
_0-0_
  6
CONTINUOUS
 62
    7
 10
176.98817248105723
 20
102.81999999999998
 11
176.98817248105723
 21
109.31999999999999
  0
LINE
  8
_0-0_
  6
CONTINUOUS
 62
    7
 10
174.04511157538724
 20
96.820000000000022
 11
178.28817248105725
 21
96.820000000000007
  0
LINE
  8
_0-0_
  6
CONTINUOUS
 62
    7
 10
174.04511157538724
 20
96.820000000000022
 11
174.04511157538724
 21
91.820000000000022
  0
LINE
  8
_0-0_
  6
CONTINUOUS
 62
    7
 10
178.28817248105725
 20
87.119999999999976
 11
178.28817248105725
 21
96.820000000000007
  0
LINE
  8
_0-0_
  6
CONTINUOUS
 62
    7
 10
178.28817248105727
 20
96.820000000000007
 11
176.88817248105727
 21
97.519999999999982
  0
LINE
  8
_0-0_
  6
CONTINUOUS
 62
    7
 10
177.28817248105725
 20
86.919999999999987
 11
177.28817248105725
 21
87.119999999999976
  0
LINE
  8
_0-0_
  6
CONTINUOUS
 62
    7
 10
160.78817248105725
 20
60.480000000000047
 11
178.28817248105722
 21
60.480000000000047
  0
LINE
  8
_0-0_
  6
CONTINUOUS
 62
    7
 10
178.28518493488036
 20
66.079999999999984
 11
173.44203171442743
 21
66.080000000000027
  0
LINE
  8
_0-0_
  6
CONTINUOUS
 62
    7
 10
177.35938713041187
 20
63.97999999999999
 11
174.36782951889595
 21
63.980000000000004
  0
LINE
  8
_0-0_
  6
CONTINUOUS
 62
    7
 10
174.36782951889595
 20
66.079999999999998
 11
174.36782951889595
 21
63.980000000000004
  0
LINE
  8
_0-0_
  6
CONTINUOUS
 62
    7
 10
173.44203171442743
 20
66.080000000000027
 11
173.44203171442743
 21
60.480000000000047
  0
LINE
  8
_0-0_
  6
CONTINUOUS
 62
    7
 10
177.35938713041187
 20
63.97999999999999
 11
177.35938713041187
 21
66.079999999999984
  0
LINE
  8
_0-0_
  6
CONTINUOUS
 62
    7
 10
178.28518493488036
 20
66.079999999999984
 11
178.28518493488036
 21
60.480000000000047
  0
LINE
  8
_0-0_
  6
CONTINUOUS
 62
    2
 10
174.83817248105726
 20
113.81999999999999
 11
174.83817248105726
 21
109.31999999999999
  0
LINE
  8
_0-0_
  6
CONTINUOUS
 62
    2
 10
164.23817248105723
 20
113.82000000000001
 11
164.23817248105723
 21
109.32000000000001
  0
ARC
  8
_0-1_コンバ__タ
  6
CONTINUOUS
 62
    7
 10
151.76908624052862
 20
189.41999999999996
 40
2
 50
90
 51
180
  0
ARC
  8
_0-1_コンバ__タ
  6
CONTINUOUS
 62
    7
 10
187.76908624052862
 20
189.41999999999996
 40
2
 50
0
 51
90
  0
LINE
  8
_0-1_コンバ__タ
  6
CONTINUOUS
 62
    7
 10
149.76908624052862
 20
143.41999999999996
 11
149.76908624052862
 21
189.41999999999996
  0
ARC
  8
_0-1_コンバ__タ
  6
CONTINUOUS
 62
    7
 10
151.76908624052862
 20
143.41999999999996
 40
2
 50
180
 51
270
  0
LINE
  8
_0-1_コンバ__タ
  6
CONTINUOUS
 62
    7
 10
189.76908624052862
 20
189.41999999999996
 11
189.76908624052862
 21
143.41999999999996
  0
ARC
  8
_0-1_コンバ__タ
  6
CONTINUOUS
 62
    7
 10
187.76908624052862
 20
143.41999999999996
 40
2
 50
270
 51
0
  0
TEXT
  8
_0-1_コンバ__タ
 62
    7
 10
161.51908624052862
 20
195.66999999999996
 40
1.5
 41
2
 50
0
  1
To Recorder
  0
TEXT
  8
_0-1_コンバ__タ
 62
    7
 10
163.01908624052862
 20
135.66999999999996
 40
1.5
 41
2
 50
0
  1
To Sensor
  0
LINE
  8
_0-1_コンバ__タ
  6
CONTINUOUS
 62
    7
 10
187.76908624052862
 20
141.41999999999996
 11
179.76908624052862
 21
141.41999999999996
  0
LINE
  8
_0-1_コンバ__タ
  6
CONTINUOUS
 62
    7
 10
159.76908624052862
 20
141.41999999999996
 11
151.76908624052862
 21
141.41999999999996
  0
LINE
  8
_0-1_コンバ__タ
  6
CONTINUOUS
 62
    7
 10
151.76908624052862
 20
191.41999999999996
 11
159.76908624052862
 21
191.41999999999996
  0
LINE
  8
_0-1_コンバ__タ
  6
CONTINUOUS
 62
    7
 10
179.76908624052862
 20
191.41999999999996
 11
187.76908624052862
 21
191.41999999999996
  0
LINE
  8
_0-1_コンバ__タ
  6
CONTINUOUS
 62
    7
 10
159.76908624052862
 20
195.41999999999996
 11
159.76908624052862
 21
191.41999999999996
  0
ARC
  8
_0-1_コンバ__タ
  6
CONTINUOUS
 62
    7
 10
161.76908624052862
 20
195.41999999999996
 40
2
 50
90
 51
180
  0
LINE
  8
_0-1_コンバ__タ
  6
CONTINUOUS
 62
    7
 10
177.76908624052862
 20
197.41999999999996
 11
161.76908624052862
 21
197.41999999999996
  0
LINE
  8
_0-1_コンバ__タ
  6
CONTINUOUS
 62
    7
 10
179.76908624052862
 20
195.41999999999996
 11
179.76908624052862
 21
191.41999999999996
  0
ARC
  8
_0-1_コンバ__タ
  6
CONTINUOUS
 62
    7
 10
177.76908624052862
 20
195.41999999999996
 40
2
 50
0
 51
90
  0
LINE
  8
_0-1_コンバ__タ
  6
CONTINUOUS
 62
    7
 10
159.76908624052862
 20
137.41999999999996
 11
159.76908624052862
 21
141.41999999999996
  0
ARC
  8
_0-1_コンバ__タ
  6
CONTINUOUS
 62
    7
 10
161.76908624052862
 20
137.41999999999996
 40
2
 50
180
 51
270
  0
LINE
  8
_0-1_コンバ__タ
  6
CONTINUOUS
 62
    7
 10
177.76908624052862
 20
135.41999999999996
 11
161.76908624052862
 21
135.41999999999996
  0
LINE
  8
_0-1_コンバ__タ
  6
CONTINUOUS
 62
    7
 10
179.76908624052862
 20
137.41999999999996
 11
179.76908624052862
 21
141.41999999999996
  0
ARC
  8
_0-1_コンバ__タ
  6
CONTINUOUS
 62
    7
 10
177.76908624052862
 20
137.41999999999996
 40
2
 50
270
 51
0
  0
CIRCLE
  8
_0-1_コンバ__タ
  6
CONTINUOUS
 62
    7
 10
189.01908624052862
 20
137.1699999999999
 40
1
  0
CIRCLE
  8
_0-1_コンバ__タ
  6
CONTINUOUS
 62
    7
 10
189.01908624052862
 20
195.6699999999999
 40
1
  0
CIRCLE
  8
_0-1_コンバ__タ
  6
CONTINUOUS
 62
    7
 10
150.51908624052868
 20
137.1699999999999
 40
1
  0
CIRCLE
  8
_0-1_コンバ__タ
  6
CONTINUOUS
 62
    7
 10
150.51908624052868
 20
195.6699999999999
 40
1
  0
LINE
  8
_0-1_コンバ__タ
  6
CONTINUOUS
 62
    7
 10
144.76908624052868
 20
134.91786789456677
 11
144.82229151620231
 21
134.3097940645988
  0
LINE
  8
_0-1_コンバ__タ
  6
CONTINUOUS
 62
    7
 10
144.82229151620231
 20
134.3097940645988
 11
144.9802907278451
 21
133.72032585563167
  0
LINE
  8
_0-1_コンバ__タ
  6
CONTINUOUS
 62
    7
 10
144.9802907278451
 20
133.72032585563167
 11
145.2382831493627
 21
133.16737396090952
  0
LINE
  8
_0-1_コンバ__タ
  6
CONTINUOUS
 62
    7
 10
145.2382831493627
 20
133.16737396090952
 11
145.58842981157778
 21
132.66773954394634
  0
LINE
  8
_0-1_コンバ__タ
  6
CONTINUOUS
 62
    7
 10
145.58842981157778
 20
132.66773954394634
 11
146.0200916853417
 21
132.23660374367432
  0
LINE
  8
_0-1_コンバ__タ
  6
CONTINUOUS
 62
    7
 10
146.0200916853417
 20
132.23660374367432
 11
146.52015294305158
 21
131.88706640321948
  0
LINE
  8
_0-1_コンバ__タ
  6
CONTINUOUS
 62
    7
 10
146.52015294305158
 20
131.88706640321948
 11
147.07341947643511
 21
131.62974803779713
  0
LINE
  8
_0-1_コンバ__タ
  6
CONTINUOUS
 62
    7
 10
147.07341947643511
 20
131.62974803779713
 11
147.66308056184181
 21
131.47246713573125
  0
LINE
  8
_0-1_コンバ__タ
  6
CONTINUOUS
 62
    7
 10
147.66308056184181
 20
131.47246713573125
 11
148.26695413509549
 21
131.4199999999999
  0
LINE
  8
_0-1_コンバ__タ
  6
CONTINUOUS
 62
    7
 10
148.26695413509549
 20
201.41999999999996
 11
147.65888030512755
 21
201.3667947243263
  0
LINE
  8
_0-1_コンバ__タ
  6
CONTINUOUS
 62
    7
 10
147.65888030512755
 20
201.3667947243263
 11
147.06941209616042
 21
201.20879551268354
  0
LINE
  8
_0-1_コンバ__タ
  6
CONTINUOUS
 62
    7
 10
147.06941209616042
 20
201.20879551268354
 11
146.51646020143826
 21
200.95080309116591
  0
LINE
  8
_0-1_コンバ__タ
  6
CONTINUOUS
 62
    7
 10
146.51646020143826
 20
200.95080309116591
 11
146.01682578447509
 21
200.60065642895083
  0
LINE
  8
_0-1_コンバ__タ
  6
CONTINUOUS
 62
    7
 10
146.01682578447509
 20
200.60065642895083
 11
145.58568998420307
 21
200.16899455518691
  0
LINE
  8
_0-1_コンバ__タ
  6
CONTINUOUS
 62
    7
 10
145.58568998420307
 20
200.16899455518691
 11
145.23615264374826
 21
199.66893329747703
  0
LINE
  8
_0-1_コンバ__タ
  6
CONTINUOUS
 62
    7
 10
145.23615264374826
 20
199.66893329747703
 11
144.97883427832591
 21
199.11566676409348
  0
LINE
  8
_0-1_コンバ__タ
  6
CONTINUOUS
 62
    7
 10
144.97883427832591
 20
199.11566676409348
 11
144.82155337626003
 21
198.52600567868677
  0
LINE
  8
_0-1_コンバ__タ
  6
CONTINUOUS
 62
    7
 10
144.82155337626003
 20
198.52600567868677
 11
144.76908624052868
 21
197.92213210543309
  0
LINE
  8
_0-1_コンバ__タ
  6
CONTINUOUS
 62
    7
 10
191.27121834596176
 20
131.4199999999999
 11
191.87929217592972
 21
131.47320527567354
  0
LINE
  8
_0-1_コンバ__タ
  6
CONTINUOUS
 62
    7
 10
191.87929217592972
 20
131.47320527567354
 11
192.46876038489685
 21
131.63120448731632
  0
LINE
  8
_0-1_コンバ__タ
  6
CONTINUOUS
 62
    7
 10
192.46876038489685
 20
131.63120448731632
 11
193.02171227961898
 21
131.88919690883395
  0
LINE
  8
_0-1_コンバ__タ
  6
CONTINUOUS
 62
    7
 10
193.02171227961898
 20
131.88919690883395
 11
193.52134669658219
 21
132.23934357104903
  0
LINE
  8
_0-1_コンバ__タ
  6
CONTINUOUS
 62
    7
 10
193.52134669658219
 20
132.23934357104903
 11
193.9524824968542
 21
132.67100544481295
  0
LINE
  8
_0-1_コンバ__タ
  6
CONTINUOUS
 62
    7
 10
193.9524824968542
 20
132.67100544481295
 11
194.30201983730902
 21
133.17106670252284
  0
LINE
  8
_0-1_コンバ__タ
  6
CONTINUOUS
 62
    7
 10
194.30201983730902
 20
133.17106670252284
 11
194.55933820273137
 21
133.72433323590636
  0
LINE
  8
_0-1_コンバ__タ
  6
CONTINUOUS
 62
    7
 10
194.55933820273137
 20
133.72433323590636
 11
194.71661910479725
 21
134.31399432131306
  0
LINE
  8
_0-1_コンバ__タ
  6
CONTINUOUS
 62
    7
 10
194.71661910479725
 20
134.31399432131306
 11
194.76908624052859
 21
134.91786789456674
  0
LINE
  8
_0-1_コンバ__タ
  6
CONTINUOUS
 62
    7
 10
194.76908624052859
 20
197.92213210543304
 11
194.71588096485493
 21
198.53020593540097
  0
LINE
  8
_0-1_コンバ__タ
  6
CONTINUOUS
 62
    7
 10
194.71588096485493
 20
198.53020593540097
 11
194.55788175321214
 21
199.1196741443681
  0
LINE
  8
_0-1_コンバ__タ
  6
CONTINUOUS
 62
    7
 10
194.55788175321214
 20
199.1196741443681
 11
194.29988933169454
 21
199.67262603909026
  0
LINE
  8
_0-1_コンバ__タ
  6
CONTINUOUS
 62
    7
 10
194.29988933169454
 20
199.67262603909026
 11
193.94974266947946
 21
200.17226045605344
  0
LINE
  8
_0-1_コンバ__タ
  6
CONTINUOUS
 62
    7
 10
193.94974266947946
 20
200.17226045605344
 11
193.51808079571555
 21
200.60339625632545
  0
LINE
  8
_0-1_コンバ__タ
  6
CONTINUOUS
 62
    7
 10
193.51808079571555
 20
200.60339625632545
 11
193.01801953800566
 21
200.95293359678027
  0
LINE
  8
_0-1_コンバ__タ
  6
CONTINUOUS
 62
    7
 10
193.01801953800566
 20
200.95293359678027
 11
192.46475300462211
 21
201.21025196220262
  0
LINE
  8
_0-1_コンバ__タ
  6
CONTINUOUS
 62
    7
 10
192.46475300462211
 20
201.21025196220262
 11
191.87509191921541
 21
201.3675328642685
  0
LINE
  8
_0-1_コンバ__タ
  6
CONTINUOUS
 62
    7
 10
191.87509191921541
 20
201.3675328642685
 11
191.27121834596176
 21
201.41999999999985
  0
LINE
  8
_0-1_コンバ__タ
  6
CONTINUOUS
 62
    7
 10
144.76908624052874
 20
197.92213210543309
 11
144.76908624052862
 21
134.91786789456671
  0
LINE
  8
_0-1_コンバ__タ
  6
CONTINUOUS
 62
    7
 10
191.27121834596181
 20
201.4199999999999
 11
148.26695413509555
 21
201.4199999999999
  0
LINE
  8
_0-1_コンバ__タ
  6
CONTINUOUS
 62
    7
 10
148.26695413509555
 20
131.4199999999999
 11
191.27121834596181
 21
131.4199999999999
  0
LINE
  8
_0-1_コンバ__タ
  6
CONTINUOUS
 62
    7
 10
194.76908624052862
 20
134.91786789456671
 11
194.76908624052862
 21
197.92213210543309
  0
CIRCLE
  8
_0-1_コンバ__タ
  6
CONTINUOUS
 62
    7
 10
189.01908624052862
 20
137.1699999999999
 40
2.699999999999998
  0
CIRCLE
  8
_0-1_コンバ__タ
  6
CONTINUOUS
 62
    7
 10
189.01908624052862
 20
195.6699999999999
 40
2.699999999999998
  0
CIRCLE
  8
_0-1_コンバ__タ
  6
CONTINUOUS
 62
    7
 10
150.51908624052868
 20
195.6699999999999
 40
2.699999999999998
  0
CIRCLE
  8
_0-1_コンバ__タ
  6
CONTINUOUS
 62
    7
 10
150.51908624052868
 20
137.1699999999999
 40
2.699999999999998
  0
CIRCLE
  8
_0-1_コンバ__タ
  6
CONTINUOUS
 62
    7
 10
150.51908624052868
 20
137.1699999999999
 40
1.4499999999999991
  0
CIRCLE
  8
_0-1_コンバ__タ
  6
CONTINUOUS
 62
    7
 10
150.51908624052868
 20
195.6699999999999
 40
1.4499999999999991
  0
CIRCLE
  8
_0-1_コンバ__タ
  6
CONTINUOUS
 62
    7
 10
189.01908624052862
 20
195.6699999999999
 40
1.4499999999999991
  0
CIRCLE
  8
_0-1_コンバ__タ
  6
CONTINUOUS
 62
    7
 10
189.01908624052862
 20
137.1699999999999
 40
1.4499999999999991
  0
LINE
  8
_0-1_コンバ__タ
  6
CONTINUOUS
 62
    7
 10
229.9690862405287
 20
201.11999999999995
 11
230.26908624052871
 21
201.11999999999995
  0
LINE
  8
_0-1_コンバ__タ
  6
CONTINUOUS
 62
    7
 10
230.26908624052871
 20
131.71999999999997
 11
229.9690862405287
 21
131.71999999999997
  0
LINE
  8
_0-1_コンバ__タ
  6
CONTINUOUS
 62
    7
 10
229.96908624052972
 20
197.92213210543315
 11
229.9690862405287
 21
201.41999999999996
  0
LINE
  8
_0-1_コンバ__タ
  6
CONTINUOUS
 62
    7
 10
229.68183749877244
 20
201.40996905290234
 11
229.9690862405287
 21
201.41999999999996
  0
LINE
  8
_0-1_コンバ__タ
  6
CONTINUOUS
 62
    7
 10
229.9690862405287
 20
131.41999999999996
 11
229.68183749877244
 21
131.43003094709769
  0
LINE
  8
_0-1_コンバ__タ
  6
CONTINUOUS
 62
    7
 10
227.26908624052899
 20
134.92789884166444
 11
227.26908624052868
 21
133.92850801464539
  0
ARC
  8
_0-1_コンバ__タ
  6
CONTINUOUS
 62
    7
 10
229.76908624052871
 20
133.92850801464539
 40
2.5000000000000022
 50
180
 51
267.99999999999977
  0
LINE
  8
_0-1_コンバ__タ
  6
CONTINUOUS
 62
    7
 10
227.26908624052899
 20
134.92789884166456
 11
227.26908624052899
 21
197.91210115833547
  0
LINE
  8
_0-1_コンバ__タ
  6
CONTINUOUS
 62
    7
 10
227.26908624052868
 20
198.91149198535459
 11
227.26908624052899
 21
197.91210115833547
  0
ARC
  8
_0-1_コンバ__タ
  6
CONTINUOUS
 62
    7
 10
229.76908624052871
 20
198.91149198535459
 40
2.5000000000000022
 50
92.000000000000199
 51
180
  0
LINE
  8
_0-1_コンバ__タ
  6
CONTINUOUS
 62
    7
 10
230.26908624052871
 20
201.41999999999996
 11
230.26908624052973
 21
197.92213210543315
  0
LINE
  8
_0-1_コンバ__タ
  6
CONTINUOUS
 62
    7
 10
230.26908624052871
 20
201.41999999999996
 11
251.87378473063598
 21
200.66554730408825
  0
LINE
  8
_0-1_コンバ__タ
  6
CONTINUOUS
 62
    7
 10
251.87378473063598
 20
132.17445269591167
 11
230.26908624052871
 21
131.41999999999996
  0
LINE
  8
_0-1_コンバ__タ
  6
CONTINUOUS
 62
    7
 10
254.76908624052862
 20
197.16767940952138
 11
254.76908624052862
 21
135.67232059047848
  0
LINE
  8
_0-1_コンバ__タ
  6
CONTINUOUS
 62
    7
 10
254.76908624052862
 20
197.16767940952138
 11
254.76908624052845
 21
197.66737482303097
  0
LINE
  8
_0-1_コンバ__タ
  6
CONTINUOUS
 62
    7
 10
254.76908624052845
 20
135.17262517696895
 11
254.76908624052862
 21
135.67232059047859
  0
ARC
  8
_0-1_コンバ__タ
  6
CONTINUOUS
 62
    7
 10
251.76908624052848
 20
197.66737482303097
 40
2.9999999999999978
 50
0
 51
88.000000000000028
  0
ARC
  8
_0-1_コンバ__タ
  6
CONTINUOUS
 62
    7
 10
251.76908624052848
 20
135.17262517696895
 40
3.0000000000000049
 50
271.99999999999977
 51
0
  0
LINE
  8
_0-1_コンバ__タ
  6
CONTINUOUS
 62
    4
 10
204.78908624052863
 20
201.4199999999999
 11
204.78908624052863
 21
131.4199999999999
  0
POINT
  8
_0-1_コンバ__タ
 62
    6
 10
204.78908624052863
 20
201.4199999999999
  0
POINT
  8
_0-1_コンバ__タ
 62
    6
 10
204.78908624052863
 20
131.4199999999999
  0
LINE
  8
_0-1_コンバ__タ
  6
CONTINUOUS
 62
    4
 10
204.78908624052863
 20
201.4199999999999
 11
194.27121834596181
 21
201.4199999999999
  0
LINE
  8
_0-1_コンバ__タ
  6
CONTINUOUS
 62
    4
 10
204.78908624052863
 20
131.4199999999999
 11
194.27121834596176
 21
131.4199999999999
  0
LINE
  8
_0-1_コンバ__タ
  6
CONTINUOUS
 62
    4
 10
254.76908624052859
 20
226.41999999999996
 11
227.26908624052868
 21
226.41999999999996
  0
POINT
  8
_0-1_コンバ__タ
 62
    6
 10
254.76908624052859
 20
226.41999999999996
  0
POINT
  8
_0-1_コンバ__タ
 62
    6
 10
227.26908624052868
 20
226.41999999999996
  0
LINE
  8
_0-1_コンバ__タ
  6
CONTINUOUS
 62
    4
 10
254.76908624052859
 20
226.41999999999996
 11
254.76908624052859
 21
201.16999999999996
  0
LINE
  8
_0-1_コンバ__タ
  6
CONTINUOUS
 62
    4
 10
227.26908624052868
 20
226.41999999999996
 11
227.26908624052868
 21
201.91149198535459
  0
LINE
  8
_0-1_コンバ__タ
  6
CONTINUOUS
 62
    4
 10
144.76908624052874
 20
226.41999999999996
 11
194.76908624052859
 21
226.41999999999996
  0
POINT
  8
_0-1_コンバ__タ
 62
    6
 10
144.76908624052874
 20
226.41999999999996
  0
POINT
  8
_0-1_コンバ__タ
 62
    6
 10
194.76908624052859
 20
226.41999999999996
  0
LINE
  8
_0-1_コンバ__タ
  6
CONTINUOUS
 62
    4
 10
144.76908624052874
 20
226.41999999999996
 11
144.76908624052874
 21
200.92213210543315
  0
LINE
  8
_0-1_コンバ__タ
  6
CONTINUOUS
 62
    4
 10
194.76908624052859
 20
226.41999999999996
 11
194.76908624052859
 21
200.92213210543304
  0
LINE
  8
_0-1_コンバ__タ
  6
CONTINUOUS
 62
    7
 10
176.71908624052861
 20
219.01999999999998
 11
162.81908624052858
 21
219.01999999999998
  0
LINE
  8
_0-1_コンバ__タ
  6
CONTINUOUS
 62
    7
 10
162.81908624052858
 20
209.91999999999996
 11
176.71908624052861
 21
209.91999999999996
  0
LINE
  8
_0-1_コンバ__タ
  6
CONTINUOUS
 62
    7
 10
176.71908624052861
 20
204.21999999999997
 11
176.71908624052861
 21
219.01999999999998
  0
LINE
  8
_0-1_コンバ__タ
  6
CONTINUOUS
 62
    7
 10
162.81908624052858
 20
219.01999999999998
 11
162.81908624052858
 21
204.21999999999997
  0
LINE
  8
_0-1_コンバ__タ
  6
CONTINUOUS
 62
    7
 10
159.76908624052862
 20
204.21999999999997
 11
179.76908624052862
 21
204.21999999999997
  0
LINE
  8
_0-1_コンバ__タ
  6
CONTINUOUS
 62
    7
 10
179.76908624052862
 20
204.21999999999997
 11
179.76908624052862
 21
201.41999999999996
  0
LINE
  8
_0-1_コンバ__タ
  6
CONTINUOUS
 62
    7
 10
159.76908624052862
 20
201.41999999999996
 11
159.76908624052862
 21
204.21999999999997
  0
LINE
  8
_0-1_コンバ__タ
  6
CONTINUOUS
 62
    7
 10
159.76908624052862
 20
201.41999999999996
 11
179.76908624052862
 21
201.41999999999996
  0
CIRCLE
  8
_0-1_コンバ__タ
  6
CONTINUOUS
 62
    7
 10
187.76908624052862
 20
156.41999999999996
 40
0.5
  0
LINE
  8
_0-1_コンバ__タ
  6
CONTINUOUS
 62
    7
 10
162.81908624052858
 20
113.81999999999999
 11
162.81908624052858
 21
128.61999999999998
  0
LINE
  8
_0-1_コンバ__タ
  6
CONTINUOUS
 62
    7
 10
162.81908624052858
 20
122.91999999999999
 11
176.71908624052861
 21
122.91999999999999
  0
LINE
  8
_0-1_コンバ__タ
  6
CONTINUOUS
 62
    7
 10
176.71908624052861
 20
113.81999999999999
 11
162.81908624052858
 21
113.81999999999999
  0
LINE
  8
_0-1_コンバ__タ
  6
CONTINUOUS
 62
    7
 10
176.71908624052861
 20
128.61999999999998
 11
176.71908624052861
 21
113.81999999999999
  0
LINE
  8
_0-1_コンバ__タ
  6
CONTINUOUS
 62
    7
 10
159.76908624052862
 20
128.61999999999998
 11
179.76908624052862
 21
128.61999999999998
  0
LINE
  8
_0-1_コンバ__タ
  6
CONTINUOUS
 62
    7
 10
179.76908624052862
 20
128.61999999999998
 11
179.76908624052862
 21
131.41999999999999
  0
LINE
  8
_0-1_コンバ__タ
  6
CONTINUOUS
 62
    7
 10
159.76908624052862
 20
131.41999999999999
 11
159.76908624052862
 21
128.61999999999998
  0
CIRCLE
  8
_0-1_コンバ__タ
  6
CONTINUOUS
 62
    7
 10
204.76908624052862
 20
121.41999999999999
 40
4
  0
LINE
  8
_0-1_コンバ__タ
  6
CONTINUOUS
 62
    7
 10
202.08543294465213
 20
124.38614311649506
 11
185.76908624052862
 21
142.41999999999996
  0
LINE
  8
_0-1_コンバ__タ
  6
CONTINUOUS
 62
    7
 10
185.76908624052862
 20
142.41999999999996
 11
188.28901450778483
 21
140.79212975704962
  0
LINE
  8
_0-1_コンバ__タ
  6
CONTINUOUS
 62
    7
 10
185.76908624052862
 20
142.41999999999996
 11
187.13747301421176
 21
139.75025888191215
  0
LINE
  8
_0-1_コンバ__タ
  6
CONTINUOUS
 62
    7
 10
183.26908624052862
 20
179.66999999999996
 11
156.26908624052862
 21
179.66999999999996
  0
LINE
  8
_0-1_コンバ__タ
  6
CONTINUOUS
 62
    7
 10
156.26908624052862
 20
179.66999999999996
 11
156.26908624052862
 21
169.16999999999996
  0
LINE
  8
_0-1_コンバ__タ
  6
CONTINUOUS
 62
    7
 10
183.26908624052862
 20
169.16999999999996
 11
156.26908624052862
 21
169.16999999999996
  0
LINE
  8
_0-1_コンバ__タ
  6
CONTINUOUS
 62
    7
 10
183.26908624052862
 20
179.66999999999996
 11
183.26908624052862
 21
169.16999999999996
  0
POINT
  8
_0-1_コンバ__タ
 62
    7
 10
187.76908624052862
 20
156.41999999999996
  0
CIRCLE
  8
_0-1_コンバ__タ
  6
DASHED2
 62
    3
 10
187.76908624052862
 20
156.41999999999996
 40
4.5
  0
CIRCLE
  8
_0-1_コンバ__タ
  6
DASHED2
 62
    3
 10
187.76908624052862
 20
156.41999999999996
 40
1.5
  0
CIRCLE
  8
_0-1_コンバ__タ
  6
CONTINUOUS
 62
    7
 10
159.76908624052862
 20
156.41999999999996
 40
3
  0
LINE
  8
_0-1_コンバ__タ
  6
CONTINUOUS
 62
    7
 10
152.76908624052862
 20
152.41999999999996
 11
153.76908624052862
 21
150.41999999999996
  0
LINE
  8
_0-1_コンバ__タ
  6
CONTINUOUS
 62
    7
 10
150.76908624052862
 20
150.41999999999996
 11
151.76908624052862
 21
152.41999999999996
  0
LINE
  8
_0-1_コンバ__タ
  6
CONTINUOUS
 62
    7
 10
153.76908624052862
 20
150.41999999999996
 11
150.76908624052862
 21
150.41999999999996
  0
LINE
  8
_0-1_コンバ__タ
  6
CONTINUOUS
 62
    7
 10
153.76908624052862
 20
150.41999999999996
 11
153.76908624052862
 21
144.41999999999996
  0
LINE
  8
_0-1_コンバ__タ
  6
CONTINUOUS
 62
    7
 10
151.76908624052862
 20
152.41999999999996
 11
152.76908624052862
 21
152.41999999999996
  0
SOLID
  8
_0-1_コンバ__タ
  6
CONTINUOUS
 62
    7
 10
150.76908624052862
 20
150.41999999999996
 11
153.76908624052862
 21
150.41999999999996
 12
151.76908624052862
 22
152.41999999999996
 13
152.76908624052862
 23
152.41999999999996
  0
SOLID
  8
_0-1_コンバ__タ
  6
CONTINUOUS
 62
    7
 10
153.76908624052862
 20
150.41999999999996
 11
150.76908624052862
 21
150.41999999999996
 12
152.76908624052862
 22
152.41999999999996
 13
151.76908624052862
 23
152.41999999999996
  0
SOLID
  8
_0-1_コンバ__タ
  6
CONTINUOUS
 62
    7
 10
150.76908624052862
 20
150.41999999999996
 11
153.76908624052862
 21
150.41999999999996
 12
151.76908624052862
 22
152.41999999999996
 13
152.76908624052862
 23
152.41999999999996
  0
LINE
  8
_0-1_コンバ__タ
  6
CONTINUOUS
 62
    7
 10
152.76908624052862
 20
142.41999999999996
 11
151.76908624052862
 21
142.41999999999996
  0
LINE
  8
_0-1_コンバ__タ
  6
CONTINUOUS
 62
    7
 10
153.76908624052862
 20
144.41999999999996
 11
152.76908624052862
 21
142.41999999999996
  0
LINE
  8
_0-1_コンバ__タ
  6
CONTINUOUS
 62
    7
 10
151.76908624052862
 20
142.41999999999996
 11
150.76908624052862
 21
144.41999999999996
  0
LINE
  8
_0-1_コンバ__タ
  6
CONTINUOUS
 62
    7
 10
150.76908624052862
 20
144.41999999999996
 11
153.76908624052862
 21
144.41999999999996
  0
LINE
  8
_0-1_コンバ__タ
  6
CONTINUOUS
 62
    7
 10
151.76908624052862
 20
142.41999999999996
 11
152.76908624052862
 21
142.41999999999996
  0
SOLID
  8
_0-1_コンバ__タ
  6
CONTINUOUS
 62
    7
 10
150.76908624052862
 20
144.41999999999996
 11
153.76908624052862
 21
144.41999999999996
 12
151.76908624052862
 22
142.41999999999996
 13
152.76908624052862
 23
142.41999999999996
  0
SOLID
  8
_0-1_コンバ__タ
  6
CONTINUOUS
 62
    7
 10
153.76908624052862
 20
144.41999999999996
 11
150.76908624052862
 21
144.41999999999996
 12
152.76908624052862
 22
142.41999999999996
 13
151.76908624052862
 23
142.41999999999996
  0
SOLID
  8
_0-1_コンバ__タ
  6
CONTINUOUS
 62
    7
 10
150.76908624052862
 20
144.41999999999996
 11
153.76908624052862
 21
144.41999999999996
 12
151.76908624052862
 22
142.41999999999996
 13
152.76908624052862
 23
142.41999999999996
  0
LINE
  8
_0-1_コンバ__タ
  6
CONTINUOUS
 62
    7
 10
152.76908624052862
 20
152.41999999999996
 11
151.76908624052862
 21
152.41999999999996
  0
CIRCLE
  8
_0-1_コンバ__タ
  6
CONTINUOUS
 62
    7
 10
179.76908624052862
 20
156.41999999999996
 40
3
  0
CIRCLE
  8
_0-1_コンバ__タ
  6
CONTINUOUS
 62
    7
 10
179.76908624052862
 20
156.41999999999996
 40
4
  0
CIRCLE
  8
_0-1_コンバ__タ
  6
CONTINUOUS
 62
    7
 10
169.76908624052862
 20
156.41999999999996
 40
4
  0
CIRCLE
  8
_0-1_コンバ__タ
  6
CONTINUOUS
 62
    7
 10
159.76908624052862
 20
156.41999999999996
 40
4
  0
TEXT
  8
_0-1_コンバ__タ
 62
    7
 10
158.26908624052862
 20
154.91999999999996
 40
3
 41
1
 50
0
  1
≪
  0
TEXT
  8
_0-1_コンバ__タ
 62
    7
 10
178.26908624052862
 20
154.91999999999996
 40
3
 41
1
 50
0
  1
≫
  0
LINE
  8
_0-1_コンバ__タ
  6
CONTINUOUS
 62
    4
 10
159.76908624052862
 20
163.66999999999996
 11
153.76908624052862
 21
163.66999999999996
  0
LINE
  8
_0-1_コンバ__タ
  6
CONTINUOUS
 62
    7
 10
151.76908624052862
 20
164.41999999999996
 11
152.76908624052862
 21
164.41999999999996
  0
LINE
  8
_0-1_コンバ__タ
  6
CONTINUOUS
 62
    4
 10
152.76908624052862
 20
164.41999999999996
 11
152.76908624052862
 21
152.41999999999996
  0
LINE
  8
_0-1_コンバ__タ
  6
CONTINUOUS
 62
    4
 10
151.76908624052862
 20
152.41999999999996
 11
151.76908624052862
 21
164.41999999999996
  0
LINE
  8
_0-1_コンバ__タ
  6
CONTINUOUS
 62
    4
 10
159.76908624052862
 20
162.66999999999996
 11
155.76908624052862
 21
162.66999999999996
  0
LINE
  8
_0-1_コンバ__タ
  6
CONTINUOUS
 62
    4
 10
159.76908624052862
 20
161.66999999999996
 11
157.76908624052862
 21
161.66999999999996
  0
TEXT
  8
_0-1_コンバ__タ
 62
    7
 10
164.76908624052862
 20
149.16999999999996
 40
2.5
 41
1
 50
0
  1
MENU/SET
  0
TEXT
  8
_0-1_コンバ__タ
 62
    7
 10
160.76908624052862
 20
185.41999999999996
 40
1.5
 41
2
 50
0
  1
Smart converter
  0
LINE
  8
_0-1_コンバ__タ
  6
CONTINUOUS
 62
    4
 10
151.76908624052862
 20
164.41999999999996
 11
187.76908624052862
 21
164.41999999999996
  0
LINE
  8
_0-1_コンバ__タ
  6
CONTINUOUS
 62
    4
 10
187.76908624052862
 20
184.41999999999996
 11
151.76908624052862
 21
184.41999999999996
  0
LINE
  8
_0-1_コンバ__タ
  6
CONTINUOUS
 62
    4
 10
151.76908624052862
 20
184.41999999999996
 11
151.76908624052862
 21
164.41999999999996
  0
LINE
  8
_0-1_コンバ__タ
  6
CONTINUOUS
 62
    4
 10
156.26908624052862
 20
184.41999999999996
 11
156.26908624052862
 21
164.41999999999996
  0
LINE
  8
_0-1_コンバ__タ
  6
CONTINUOUS
 62
    4
 10
183.26908624052862
 20
184.41999999999996
 11
183.26908624052862
 21
164.41999999999996
  0
SOLID
  8
_0-1_コンバ__タ
  6
CONTINUOUS
 62
    4
 10
151.76908624052862
 20
164.41999999999996
 11
151.76908624052862
 21
152.41999999999996
 12
152.76908624052862
 22
164.41999999999996
 13
152.76908624052862
 23
152.41999999999996
  0
CIRCLE
  8
_0-1_コンバ__タ
  6
CONTINUOUS
 62
    1
 10
169.76908624052862
 20
156.41999999999996
 40
3
  0
CIRCLE
  8
_0-1_コンバ__タ
  6
CONTINUOUS
 62
    1
 10
169.76908624052862
 20
156.41999999999996
 40
3
  0
SOLID
  8
_0-1_コンバ__タ
  6
CONTINUOUS
 62
    4
 10
151.76908624052862
 20
184.41999999999996
 11
156.26908624052862
 21
184.41999999999996
 12
151.76908624052862
 22
164.41999999999996
 13
156.26908624052862
 23
164.41999999999996
  0
SOLID
  8
_0-1_コンバ__タ
  6
CONTINUOUS
 62
    4
 10
156.26908624052862
 20
184.41999999999996
 11
183.26908624052862
 21
184.41999999999996
 12
156.26908624052862
 22
179.66999999999996
 13
183.26908624052862
 23
179.66999999999996
  0
SOLID
  8
_0-1_コンバ__タ
  6
CONTINUOUS
 62
    4
 10
156.26908624052862
 20
169.16999999999996
 11
183.26908624052862
 21
169.16999999999996
 12
156.26908624052862
 22
164.41999999999996
 13
183.26908624052862
 23
164.41999999999996
  0
TEXT
  8
_0-1_コンバ__タ
 62
    7
 10
179.69790275193071
 20
181.72350188791563
 40
2
 41
1.25
 50
0
  1
GSC-01
  0
LINE
  8
_0-1_コンバ__タ
  6
CONTINUOUS
 62
    7
 10
150.76908624052862
 20
150.41999999999996
 11
150.76908624052862
 21
144.41999999999996
  0
CIRCLE
  8
_0-1_コンバ__タ
  6
CONTINUOUS
 62
    7
 10
187.76908624052862
 20
156.41999999999996
 40
1
  0
SOLID
  8
_0-1_コンバ__タ
  6
CONTINUOUS
 62
    4
 10
183.26908624052862
 20
184.41999999999996
 11
187.76908624052862
 21
184.41999999999996
 12
183.26908624052862
 22
164.41999999999996
 13
187.76908624052862
 23
164.41999999999996
  0
LINE
  8
_0-1_コンバ__タ
  6
CONTINUOUS
 62
  250
 10
159.34171156781281
 20
190.32029924176356
 11
156.54171156781285
 21
190.32029924176356
  0
LINE
  8
_0-1_コンバ__タ
  6
CONTINUOUS
 62
  250
 10
157.94171156781283
 20
185.42029924176353
 11
159.34171156781281
 21
186.82029924176356
  0
LINE
  8
_0-1_コンバ__タ
  6
CONTINUOUS
 62
  250
 10
159.34171156781281
 20
189.62029924176358
 11
159.34171156781281
 21
190.32029924176356
  0
LINE
  8
_0-1_コンバ__タ
  6
CONTINUOUS
 62
  250
 10
155.84171156781281
 20
189.62029924176358
 11
159.34171156781281
 21
189.62029924176358
  0
LINE
  8
_0-1_コンバ__タ
  6
CONTINUOUS
 62
  250
 10
155.84171156781281
 20
186.12029924176358
 11
155.84171156781281
 21
189.62029924176358
  0
LINE
  8
_0-1_コンバ__タ
  6
CONTINUOUS
 62
  250
 10
158.64171156781288
 20
186.12029924176358
 11
155.84171156781281
 21
186.12029924176358
  0
LINE
  8
_0-1_コンバ__タ
  6
CONTINUOUS
 62
  250
 10
158.64171156781288
 20
187.52029924176355
 11
158.64171156781288
 21
186.12029924176358
  0
LINE
  8
_0-1_コンバ__タ
  6
CONTINUOUS
 62
  250
 10
155.14171156781288
 20
185.42029924176353
 11
157.94171156781283
 21
185.42029924176353
  0
LINE
  8
_0-1_コンバ__タ
  6
CONTINUOUS
 62
  250
 10
155.84171156781281
 20
186.12029924176358
 11
155.14171156781288
 21
185.42029924176353
  0
LINE
  8
_0-1_コンバ__タ
  6
CONTINUOUS
 62
  250
 10
156.54171156781285
 20
190.32029924176356
 11
155.14171156781288
 21
188.92029924176353
  0
LINE
  8
_0-1_コンバ__タ
  6
CONTINUOUS
 62
  250
 10
159.34171156781281
 20
186.82029924176356
 11
159.34171156781281
 21
188.22029924176354
  0
SOLID
  8
_0-1_コンバ__タ
  6
CONTINUOUS
 62
    1
 10
159.34171156781281
 20
188.22029924176354
 11
157.94171156781283
 21
188.22029924176354
 12
158.64171156781288
 22
187.52029924176355
 13
157.24171156781284
 23
187.52029924176355
  0
LINE
  8
_0-1_コンバ__タ
  6
CONTINUOUS
 62
  250
 10
155.14171156781288
 20
188.92029924176353
 11
155.14171156781288
 21
185.42029924176353
  0
SOLID
  8
_0-1_コンバ__タ
  6
CONTINUOUS
 62
    7
 10
155.84171156781281
 20
189.62029924176358
 11
159.34171156781281
 21
189.62029924176358
 12
156.54171156781285
 22
190.32029924176356
 13
159.34171156781281
 23
190.32029924176356
  0
SOLID
  8
_0-1_コンバ__タ
  6
CONTINUOUS
 62
    7
 10
155.84171156781281
 20
189.62029924176358
 11
155.14171156781288
 21
188.92029924176353
 12
155.84171156781281
 22
186.12029924176358
 13
155.14171156781288
 23
185.42029924176353
  0
SOLID
  8
_0-1_コンバ__タ
  6
CONTINUOUS
 62
    7
 10
155.84171156781281
 20
186.12029924176358
 11
155.14171156781288
 21
185.42029924176353
 12
158.64171156781288
 22
186.12029924176358
 13
157.94171156781283
 23
185.42029924176353
  0
SOLID
  8
_0-1_コンバ__タ
  6
CONTINUOUS
 62
    7
 10
158.64171156781288
 20
186.12029924176358
 11
159.34171156781281
 21
186.82029924176356
 12
158.64171156781288
 22
187.52029924176355
 13
159.34171156781281
 23
188.22029924176354
  0
LINE
  8
_0-1_コンバ__タ
  6
CONTINUOUS
 62
    7
 10
229.9690862405287
 20
131.41999999999996
 11
229.96908624054817
 21
197.92213210543315
  0
LINE
  8
_0-1_コンバ__タ
  6
CONTINUOUS
 62
    7
 10
230.26908624054818
 20
197.92213210543315
 11
230.26908624052871
 21
131.41999999999996
  0
TEXT
  8
_0-1_コンバ__タ
 62
    7
 10
159.06904438313927
 20
149.16999999999996
 40
2.5
 41
1
 50
0
  1
L
  0
TEXT
  8
_0-1_コンバ__タ
 62
    7
 10
179.14664388007628
 20
149.16999999999996
 40
2.5
 41
1
 50
0
  1
R
  0
LINE
  8
_0-2_ケ__ブル付コネクタ
  6
CONTINUOUS
 62
    2
 10
169.76908624052862
 20
209.60840029999997
 11
169.76908624052862
 21
254.98069949999996
  0
LINE
  8
_0-2_ケ__ブル付コネクタ
  6
CONTINUOUS
 62
    7
 10
162.96909894052862
 20
225.41989319999993
 11
163.26908584052862
 21
225.11989019999996
  0
LINE
  8
_0-2_ケ__ブル付コネクタ
  6
CONTINUOUS
 62
    7
 10
163.26908584052862
 20
225.11999699999996
 11
176.26905574052861
 21
225.11999699999996
  0
LINE
  8
_0-2_ケ__ブル付コネクタ
  6
CONTINUOUS
 62
    7
 10
176.26905574052861
 20
225.11989019999996
 11
176.56907364052864
 21
225.41989319999993
  0
LINE
  8
_0-2_ケ__ブル付コネクタ
  6
CONTINUOUS
 62
    7
 10
176.11906184052862
 20
225.41999999999996
 11
176.11906184052862
 21
230.61999699999996
  0
LINE
  8
_0-2_ケ__ブル付コネクタ
  6
CONTINUOUS
 62
    7
 10
174.93906874052863
 20
225.41999999999996
 11
174.93906874052863
 21
230.61999699999996
  0
LINE
  8
_0-2_ケ__ブル付コネクタ
  6
CONTINUOUS
 62
    7
 10
173.75907674052863
 20
225.41999999999996
 11
173.75907674052863
 21
230.61999699999996
  0
LINE
  8
_0-2_ケ__ブル付コネクタ
  6
CONTINUOUS
 62
    7
 10
176.56907364052864
 20
230.61999699999996
 11
176.56907364052864
 21
225.41989319999993
  0
LINE
  8
_0-2_ケ__ブル付コネクタ
  6
CONTINUOUS
 62
    7
 10
170.2190984405286
 20
225.41999999999996
 11
170.2190984405286
 21
230.61999699999996
  0
LINE
  8
_0-2_ケ__ブル付コネクタ
  6
CONTINUOUS
 62
    7
 10
171.39909084052863
 20
225.41999999999996
 11
171.39909084052863
 21
230.61999699999996
  0
LINE
  8
_0-2_ケ__ブル付コネクタ
  6
CONTINUOUS
 62
    7
 10
172.57908384052863
 20
225.41999999999996
 11
172.57908384052863
 21
230.61999699999996
  0
LINE
  8
_0-2_ケ__ブル付コネクタ
  6
CONTINUOUS
 62
    7
 10
164.06907364052864
 20
233.61999699999996
 11
164.06907364052864
 21
240.61999699999996
  0
LINE
  8
_0-2_ケ__ブル付コネクタ
  6
CONTINUOUS
 62
    7
 10
176.26902474052864
 20
225.11989019999996
 11
176.56901254052863
 21
225.41989319999993
  0
LINE
  8
_0-2_ケ__ブル付コネクタ
  6
CONTINUOUS
 62
    7
 10
164.56907364052864
 20
240.61999699999996
 11
164.56907364052864
 21
241.61999699999996
  0
LINE
  8
_0-2_ケ__ブル付コネクタ
  6
CONTINUOUS
 62
    7
 10
169.76911684052862
 20
249.61989019999996
 11
174.24528254052865
 21
249.61989019999996
  0
LINE
  8
_0-2_ケ__ブル付コネクタ
  6
CONTINUOUS
 62
    7
 10
169.76911684052862
 20
246.61989019999996
 11
174.5167059405286
 21
246.61989019999996
  0
LINE
  8
_0-2_ケ__ブル付コネクタ
  6
CONTINUOUS
 62
    7
 10
169.76911684052862
 20
250.61989019999996
 11
174.15479794052862
 21
250.61989019999996
  0
LINE
  8
_0-2_ケ__ブル付コネクタ
  6
CONTINUOUS
 62
    7
 10
172.76914774052864
 20
250.61989019999996
 11
172.76914774052864
 21
249.61989019999996
  0
LINE
  8
_0-2_ケ__ブル付コネクタ
  6
CONTINUOUS
 62
    7
 10
173.76914774052864
 20
246.61989019999996
 11
173.76914774052864
 21
245.61989019999996
  0
LINE
  8
_0-2_ケ__ブル付コネクタ
  6
CONTINUOUS
 62
    7
 10
164.75001274052863
 20
243.61989019999996
 11
169.76911684052862
 21
243.61989019999996
  0
LINE
  8
_0-2_ケ__ブル付コネクタ
  6
CONTINUOUS
 62
    7
 10
164.84049784052863
 20
244.61989019999996
 11
169.76911684052862
 21
244.61989019999996
  0
LINE
  8
_0-2_ケ__ブル付コネクタ
  6
CONTINUOUS
 62
    7
 10
165.76911684052862
 20
243.61989019999996
 11
165.76911684052862
 21
244.61989019999996
  0
LINE
  8
_0-2_ケ__ブル付コネクタ
  6
CONTINUOUS
 62
    7
 10
169.76911684052862
 20
245.61989019999996
 11
174.60716004052864
 21
245.61989019999996
  0
LINE
  8
_0-2_ケ__ブル付コネクタ
  6
CONTINUOUS
 62
    7
 10
166.76911684052862
 20
247.61989019999996
 11
166.76911684052862
 21
248.61989019999996
  0
LINE
  8
_0-2_ケ__ブル付コネクタ
  6
CONTINUOUS
 62
    7
 10
165.2024058405286
 20
248.61989019999996
 11
169.76911684052862
 21
248.61989019999996
  0
LINE
  8
_0-2_ケ__ブル付コネクタ
  6
CONTINUOUS
 62
    7
 10
165.11192074052863
 20
247.61989019999996
 11
169.76911684052862
 21
247.61989019999996
  0
LINE
  8
_0-2_ケ__ブル付コネクタ
  6
CONTINUOUS
 62
    7
 10
162.96909894052862
 20
225.41989319999993
 11
163.26908584052862
 21
225.11989019999996
  0
LINE
  8
_0-2_ケ__ブル付コネクタ
  6
CONTINUOUS
 62
    7
 10
162.96903794052861
 20
225.41989319999993
 11
162.96903794052861
 21
237.61999699999996
  0
LINE
  8
_0-2_ケ__ブル付コネクタ
  6
CONTINUOUS
 62
    7
 10
164.06907364052864
 20
233.61999699999996
 11
175.46906794052862
 21
233.61999699999996
  0
LINE
  8
_0-2_ケ__ブル付コネクタ
  6
CONTINUOUS
 62
    7
 10
164.06907364052864
 20
233.61999699999996
 11
162.96903794052861
 21
230.61999699999996
  0
LINE
  8
_0-2_ケ__ブル付コネクタ
  6
CONTINUOUS
 62
    7
 10
164.06907364052864
 20
240.61999699999996
 11
175.46906794052862
 21
240.61999699999996
  0
LINE
  8
_0-2_ケ__ブル付コネクタ
  6
CONTINUOUS
 62
    7
 10
175.46906794052862
 20
233.61999699999996
 11
176.56907364052864
 21
230.61999699999996
  0
LINE
  8
_0-2_ケ__ブル付コネクタ
  6
CONTINUOUS
 62
    7
 10
175.46906794052862
 20
233.61999699999996
 11
175.46906794052862
 21
240.61999699999996
  0
LINE
  8
_0-2_ケ__ブル付コネクタ
  6
CONTINUOUS
 62
    7
 10
174.96906794052862
 20
240.61999699999996
 11
174.96906794052862
 21
241.61999699999996
  0
POINT
  8
_0-2_ケ__ブル付コネクタ
 62
    7
 10
173.78443664052864
 20
229.11999699999996
  0
CIRCLE
  8
_0-2_ケ__ブル付コネクタ
  6
CONTINUOUS
 62
    7
 10
169.76908624052862
 20
237.11999699999996
 40
2.999906999999999
  0
ARC
  8
_0-2_ケ__ブル付コネクタ
  6
CONTINUOUS
 62
    7
 10
169.76908624052862
 20
244.11989019999996
 40
0.5
 50
270
 51
90
  0
ARC
  8
_0-2_ケ__ブル付コネクタ
  6
CONTINUOUS
 62
    7
 10
169.76911684052862
 20
246.11989019999996
 40
0.5
 50
90
 51
270
  0
ARC
  8
_0-2_ケ__ブル付コネクタ
  6
CONTINUOUS
 62
    7
 10
169.76908624052862
 20
248.11989019999996
 40
0.5000038
 50
270
 51
90
  0
ARC
  8
_0-2_ケ__ブル付コネクタ
  6
CONTINUOUS
 62
    7
 10
169.76911684052862
 20
250.11989019999996
 40
0.5
 50
90
 51
270
  0
LINE
  8
_0-2_ケ__ブル付コネクタ
  6
CONTINUOUS
 62
    7
 10
164.56907364052864
 20
241.61999699999996
 11
174.96906794052862
 21
241.61999699999996
  0
LINE
  8
_0-2_ケ__ブル付コネクタ
  6
CONTINUOUS
 62
    7
 10
164.06907364052864
 20
240.61999699999996
 11
162.96903794052861
 21
237.61999699999996
  0
LINE
  8
_0-2_ケ__ブル付コネクタ
  6
CONTINUOUS
 62
    7
 10
163.41911064052863
 20
225.41999999999996
 11
163.41911064052863
 21
230.61999699999996
  0
LINE
  8
_0-2_ケ__ブル付コネクタ
  6
CONTINUOUS
 62
    7
 10
164.59910384052861
 20
225.41999999999996
 11
164.59910384052861
 21
230.61999699999996
  0
LINE
  8
_0-2_ケ__ブル付コネクタ
  6
CONTINUOUS
 62
    7
 10
165.77909584052864
 20
225.41999999999996
 11
165.77909584052864
 21
230.61999699999996
  0
LINE
  8
_0-2_ケ__ブル付コネクタ
  6
CONTINUOUS
 62
    7
 10
169.31907414052864
 20
225.41999999999996
 11
169.31907414052864
 21
230.61999699999996
  0
LINE
  8
_0-2_ケ__ブル付コネクタ
  6
CONTINUOUS
 62
    7
 10
168.13908174052861
 20
225.41999999999996
 11
168.13908174052861
 21
230.61999699999996
  0
LINE
  8
_0-2_ケ__ブル付コネクタ
  6
CONTINUOUS
 62
    7
 10
166.95908874052861
 20
225.41999999999996
 11
166.95908874052861
 21
230.61999699999996
  0
LINE
  8
_0-2_ケ__ブル付コネクタ
  6
CONTINUOUS
 62
    7
 10
162.96909894052862
 20
225.41999999999996
 11
176.56907364052864
 21
225.41999999999996
  0
LINE
  8
_0-2_ケ__ブル付コネクタ
  6
CONTINUOUS
 62
    7
 10
176.56907364052864
 20
230.61999699999996
 11
162.96909894052862
 21
230.61999699999996
  0
POINT
  8
_0-2_ケ__ブル付コネクタ
 62
    7
 10
165.7537359405286
 20
229.11999699999996
  0
LINE
  8
_0-2_ケ__ブル付コネクタ
  6
CONTINUOUS
 62
    7
 10
174.01908584052862
 20
252.12000309999999
 11
165.51908584052862
 21
252.12000309999999
  0
LINE
  8
_0-2_ケ__ブル付コネクタ
  6
CONTINUOUS
 62
    7
 10
174.41907974052862
 20
223.01999089999995
 11
174.41907974052862
 21
225.11999699999996
  0
LINE
  8
_0-2_ケ__ブル付コネクタ
  6
CONTINUOUS
 62
    7
 10
165.11906184052862
 20
225.11999699999996
 11
165.11906184052862
 21
223.01999089999995
  0
LINE
  8
_0-2_ケ__ブル付コネクタ
  6
CONTINUOUS
 62
    7
 10
162.31908624052863
 20
212.31949039999995
 11
162.79407304052864
 21
211.81999389999996
  0
LINE
  8
_0-2_ケ__ブル付コネクタ
  6
CONTINUOUS
 62
    7
 10
176.69407364052864
 20
211.81999389999996
 11
177.21908624052861
 21
212.31999389999996
  0
LINE
  8
_0-2_ケ__ブル付コネクタ
  6
CONTINUOUS
 62
    7
 10
177.21908624052861
 20
222.11999699999996
 11
176.69407364052864
 21
223.01999089999995
  0
LINE
  8
_0-2_ケ__ブル付コネクタ
  6
CONTINUOUS
 62
    7
 10
164.93237484052864
 20
214.71989629999996
 11
164.93287364052864
 21
214.72000309999996
  0
LINE
  8
_0-2_ケ__ブル付コネクタ
  6
CONTINUOUS
 62
    7
 10
165.03886164052864
 20
214.51999089999995
 11
165.03886164052864
 21
211.91999999999996
  0
LINE
  8
_0-2_ケ__ブル付コネクタ
  6
CONTINUOUS
 62
    7
 10
176.68607464052863
 20
214.51999089999995
 11
176.68587294052861
 21
214.52539249999995
  0
LINE
  8
_0-2_ケ__ブル付コネクタ
  6
CONTINUOUS
 62
    7
 10
176.68587294052861
 20
214.52539249999995
 11
176.6918344397626
 21
214.61885632856234
  0
LINE
  8
_0-2_ケ__ブル付コネクタ
  6
CONTINUOUS
 62
    7
 10
177.21908624052861
 20
212.31999389999996
 11
177.21908624052861
 21
222.11999699999996
  0
LINE
  8
_0-2_ケ__ブル付コネクタ
  6
CONTINUOUS
 62
    7
 10
162.31908624052863
 20
222.12079039999998
 11
162.31908624052863
 21
212.31949039999995
  0
ARC
  8
_0-2_ケ__ブル付コネクタ
  6
CONTINUOUS
 62
    7
 10
173.44407384052863
 20
211.72000309999996
 40
0.2999999999999998
 50
270
 51
0
  0
LINE
  8
_0-2_ケ__ブル付コネクタ
  6
CONTINUOUS
 62
    7
 10
173.74406184052862
 20
211.72000309999996
 11
173.74406184052862
 21
211.81999389999996
  0
ARC
  8
_0-2_ケ__ブル付コネクタ
  6
CONTINUOUS
 62
    7
 10
166.16817713262563
 20
211.72000529205832
 40
0.3000052921050119
 50
180.00041864492175
 51
269.99898930175203
  0
LINE
  8
_0-2_ケ__ブル付コネクタ
  6
CONTINUOUS
 62
    7
 10
165.86816584052863
 20
211.81999389999996
 11
165.86816584052863
 21
211.72000309999996
  0
LINE
  8
_0-2_ケ__ブル付コネクタ
  6
CONTINUOUS
 62
    7
 10
176.69407364052864
 20
211.81999389999996
 11
162.79407304052864
 21
211.81999389999996
  0
LINE
  8
_0-2_ケ__ブル付コネクタ
  6
CONTINUOUS
 62
    7
 10
177.11377464052865
 20
212.31999389999996
 11
177.21908624052861
 21
212.31999389999996
  0
LINE
  8
_0-2_ケ__ブル付コネクタ
  6
CONTINUOUS
 62
    7
 10
162.69677484052863
 20
211.91999999999996
 11
162.77006284052862
 21
211.91999999999996
  0
LINE
  8
_0-2_ケ__ブル付コネクタ
  6
CONTINUOUS
 62
    7
 10
162.44577594052862
 20
212.31999389999996
 11
162.67577494052861
 21
212.31999389999996
  0
ARC
  8
_0-2_ケ__ブル付コネクタ
  6
CONTINUOUS
 62
    7
 10
162.48917474052863
 20
211.81669799999997
 40
0.5368108999999999
 50
34.05020140000012
 51
69.657104499999903
  0
ARC
  8
_0-2_ケ__ブル付コネクタ
  6
CONTINUOUS
 62
    7
 10
163.48767174052864
 20
212.56880369999993
 40
0.7145802999999999
 50
219.1947021000002
 51
245.2277068999993
  0
LINE
  8
_0-2_ケ__ブル付コネクタ
  6
CONTINUOUS
 62
    7
 10
163.18827194052861
 20
211.91999999999996
 11
163.54367204052863
 21
211.91999999999996
  0
LINE
  8
_0-2_ケ__ブル付コネクタ
  6
CONTINUOUS
 62
    7
 10
163.39737504052863
 20
212.31999389999996
 11
163.90717494052862
 21
212.31999389999996
  0
LINE
  8
_0-2_ケ__ブル付コネクタ
  6
CONTINUOUS
 62
    7
 10
164.47057474052863
 20
211.91999999999996
 11
165.03886164052864
 21
211.91999999999996
  0
LINE
  8
_0-2_ケ__ブル付コネクタ
  6
CONTINUOUS
 62
    7
 10
165.11457194052863
 20
212.31999389999996
 11
165.84257284052862
 21
212.31999389999996
  0
ARC
  8
_0-2_ケ__ブル付コネクタ
  6
CONTINUOUS
 62
    7
 10
165.80867474052863
 20
211.98169129999997
 40
0.3400333999999998
 50
23.498809800000092
 51
84.280212400000764
  0
ARC
  8
_0-2_ケ__ブル付コネクタ
  6
CONTINUOUS
 62
    7
 10
166.43977494052862
 20
212.27049439999996
 40
0.3542208
 50
205.64379879999998
 51
261.73139950000012
  0
LINE
  8
_0-2_ケ__ブル付コネクタ
  6
CONTINUOUS
 62
    7
 10
166.38887584052864
 20
211.91999999999996
 11
167.15097184052863
 21
211.91999999999996
  0
LINE
  8
_0-2_ケ__ブル付コネクタ
  6
CONTINUOUS
 62
    7
 10
167.39017284052863
 20
212.31999389999996
 11
168.24847174052863
 21
212.31999389999996
  0
LINE
  8
_0-2_ケ__ブル付コネクタ
  6
CONTINUOUS
 62
    7
 10
168.71187384052863
 20
211.91999999999996
 11
169.54957334052861
 21
211.91999999999996
  0
LINE
  8
_0-2_ケ__ブル付コネクタ
  6
CONTINUOUS
 62
    7
 10
169.94957494052863
 20
212.31999389999996
 11
170.83487474052865
 21
212.31999389999996
  0
LINE
  8
_0-2_ケ__ブル付コネクタ
  6
CONTINUOUS
 62
    7
 10
171.15937174052863
 20
211.91999999999996
 11
171.97166174052862
 21
211.91999999999996
  0
LINE
  8
_0-2_ケ__ブル付コネクタ
  6
CONTINUOUS
 62
    7
 10
172.48427384052863
 20
212.31999389999996
 11
173.28966274052863
 21
212.31999389999996
  0
LINE
  8
_0-2_ケ__ブル付コネクタ
  6
CONTINUOUS
 62
    7
 10
173.43616284052862
 20
211.91999999999996
 11
174.12507384052864
 21
211.91999999999996
  0
LINE
  8
_0-2_ケ__ブル付コネクタ
  6
CONTINUOUS
 62
    7
 10
174.68847364052866
 20
212.31999389999996
 11
175.31686584052864
 21
212.31999389999996
  0
LINE
  8
_0-2_ケ__ブル付コネクタ
  6
CONTINUOUS
 62
    7
 10
175.26767484052863
 20
211.91999999999996
 11
175.74997464052865
 21
211.91999999999996
  0
LINE
  8
_0-2_ケ__ブル付コネクタ
  6
CONTINUOUS
 62
    7
 10
176.29626174052862
 20
212.31999389999996
 11
176.67187304052865
 21
212.31999389999996
  0
LINE
  8
_0-2_ケ__ブル付コネクタ
  6
CONTINUOUS
 62
    7
 10
169.54957334052861
 20
211.91999999999996
 11
169.54957334052861
 21
222.83999819999997
  0
LINE
  8
_0-2_ケ__ブル付コネクタ
  6
CONTINUOUS
 62
    7
 10
171.15937174052863
 20
222.83999819999997
 11
171.15937174052863
 21
211.91999999999996
  0
LINE
  8
_0-2_ケ__ブル付コネクタ
  6
CONTINUOUS
 62
    7
 10
168.71187384052863
 20
222.83999819999997
 11
168.71187384052863
 21
211.91999999999996
  0
LINE
  8
_0-2_ケ__ブル付コネクタ
  6
CONTINUOUS
 62
    7
 10
172.48427384052863
 20
222.11999699999996
 11
172.48427384052863
 21
212.31999389999999
  0
LINE
  8
_0-2_ケ__ブル付コネクタ
  6
CONTINUOUS
 62
    7
 10
173.28966274052863
 20
212.31999389999999
 11
173.28966274052863
 21
222.11999699999996
  0
LINE
  8
_0-2_ケ__ブル付コネクタ
  6
CONTINUOUS
 62
    7
 10
171.97166174052862
 20
211.91999999999996
 11
171.97166174052862
 21
222.83999819999997
  0
LINE
  8
_0-2_ケ__ブル付コネクタ
  6
CONTINUOUS
 62
    7
 10
167.15097184052863
 20
211.91999999999996
 11
167.15097184052863
 21
222.83999819999997
  0
LINE
  8
_0-2_ケ__ブル付コネクタ
  6
CONTINUOUS
 62
    7
 10
166.38887584052864
 20
222.83999819999997
 11
166.38887584052864
 21
211.91999999999996
  0
LINE
  8
_0-2_ケ__ブル付コネクタ
  6
CONTINUOUS
 62
    7
 10
165.84257284052862
 20
212.31999389999999
 11
165.84257284052862
 21
222.11999699999996
  0
LINE
  8
_0-2_ケ__ブル付コネクタ
  6
CONTINUOUS
 62
    7
 10
163.90717494052862
 20
212.31999389999999
 11
163.90717494052862
 21
214.51999089999998
  0
LINE
  8
_0-2_ケ__ブル付コネクタ
  6
CONTINUOUS
 62
    7
 10
163.39737504052863
 20
222.11999699999996
 11
163.39737504052863
 21
212.31999389999999
  0
LINE
  8
_0-2_ケ__ブル付コネクタ
  6
CONTINUOUS
 62
    7
 10
165.11457194052863
 20
212.31999389999999
 11
165.11457194052863
 21
214.51999089999998
  0
ARC
  8
_0-2_ケ__ブル付コネクタ
  6
CONTINUOUS
 62
    7
 10
164.73347174052864
 20
214.54390139999998
 40
0.3818662999999998
 50
356.40811159999998
 51
80.009887699999311
  0
LINE
  8
_0-2_ケ__ブル付コネクタ
  6
CONTINUOUS
 62
    7
 10
164.17136474052862
 20
214.91999999999996
 11
164.79967304052863
 21
214.91999999999996
  0
LINE
  8
_0-2_ケ__ブル付コネクタ
  6
CONTINUOUS
 62
    7
 10
173.43616284052862
 20
222.83999819999997
 11
173.43616284052862
 21
211.91999999999996
  0
LINE
  8
_0-2_ケ__ブル付コネクタ
  6
CONTINUOUS
 62
    7
 10
174.12507384052864
 20
211.91999999999996
 11
174.12507384052864
 21
222.83999819999997
  0
LINE
  8
_0-2_ケ__ブル付コネクタ
  6
CONTINUOUS
 62
    7
 10
174.68847364052866
 20
222.11999699999996
 11
174.68847364052866
 21
212.31999389999999
  0
LINE
  8
_0-2_ケ__ブル付コネクタ
  6
CONTINUOUS
 62
    7
 10
175.31686584052864
 20
212.31999389999999
 11
175.31686584052864
 21
222.11999699999996
  0
LINE
  8
_0-2_ケ__ブル付コネクタ
  6
CONTINUOUS
 62
    7
 10
164.3332508634368
 20
214.72000309999999
 11
164.93246164052863
 21
214.72000309999999
  0
LINE
  8
_0-2_ケ__ブル付コネクタ
  6
CONTINUOUS
 62
    7
 10
164.47057474052863
 20
211.91999999999996
 11
164.47057474052863
 21
214.51999089999998
  0
LINE
  8
_0-2_ケ__ブル付コネクタ
  6
CONTINUOUS
 62
    7
 10
164.19237274052864
 20
214.51999089999998
 11
163.90717494052862
 21
214.51999089999998
  0
LINE
  8
_0-2_ケ__ブル付コネクタ
  6
CONTINUOUS
 62
    7
 10
164.47057474052863
 20
214.51999089999998
 11
164.19237274052864
 21
214.51999089999998
  0
LINE
  8
_0-2_ケ__ブル付コネクタ
  6
CONTINUOUS
 62
    7
 10
164.19237274052864
 20
212.11729619999997
 11
164.19237274052864
 21
214.51999089999998
  0
LINE
  8
_0-2_ケ__ブル付コネクタ
  6
CONTINUOUS
 62
    7
 10
175.74997464052865
 20
211.91999999999996
 11
175.74997464052865
 21
222.83999819999997
  0
LINE
  8
_0-2_ケ__ブル付コネクタ
  6
CONTINUOUS
 62
    7
 10
176.29626174052862
 20
222.11999699999996
 11
176.29626174052862
 21
212.31999389999999
  0
LINE
  8
_0-2_ケ__ブル付コネクタ
  6
CONTINUOUS
 62
    7
 10
176.67187304052865
 20
214.51999089999998
 11
176.68037164052865
 21
214.65239139999997
  0
LINE
  8
_0-2_ケ__ブル付コネクタ
  6
CONTINUOUS
 62
    7
 10
176.68037164052865
 20
214.65239139999997
 11
176.70447294052863
 21
214.76979249999997
  0
LINE
  8
_0-2_ケ__ブル付コネクタ
  6
CONTINUOUS
 62
    7
 10
176.70447294052863
 20
214.76979249999997
 11
176.74057474052864
 21
214.85910219999997
  0
LINE
  8
_0-2_ケ__ブル付コネクタ
  6
CONTINUOUS
 62
    7
 10
176.74057474052864
 20
214.85910219999997
 11
176.78336464052865
 21
214.91020389999997
  0
LINE
  8
_0-2_ケ__ブル付コネクタ
  6
CONTINUOUS
 62
    7
 10
176.78336464052865
 20
214.91020389999997
 11
176.81247464052865
 21
214.91999999999996
  0
LINE
  8
_0-2_ケ__ブル付コネクタ
  6
CONTINUOUS
 62
    7
 10
176.67187304052865
 20
212.31999389999999
 11
176.67187304052865
 21
214.51999089999998
  0
LINE
  8
_0-2_ケ__ブル付コネクタ
  6
CONTINUOUS
 62
    7
 10
177.11377464052865
 20
212.31999389999999
 11
177.11377464052865
 21
214.51999089999998
  0
ARC
  8
_0-2_ケ__ブル付コネクタ
  6
CONTINUOUS
 62
    7
 10
176.50117294052862
 20
214.61709779999995
 40
0.6202328000000001
 50
350.99700930000023
 51
29.237609899999853
  0
LINE
  8
_0-2_ケ__ブル付コネクタ
  6
CONTINUOUS
 62
    7
 10
176.81247464052865
 20
214.91999999999996
 11
177.04246274052863
 21
214.91999999999996
  0
LINE
  8
_0-2_ケ__ブル付コネクタ
  6
CONTINUOUS
 62
    7
 10
163.18827194052861
 20
222.83999819999997
 11
163.18827194052861
 21
211.91999999999996
  0
LINE
  8
_0-2_ケ__ブル付コネクタ
  6
CONTINUOUS
 62
    7
 10
162.67577494052861
 20
212.31999389999999
 11
162.67577494052861
 21
222.11999699999996
  0
LINE
  8
_0-2_ケ__ブル付コネクタ
  6
CONTINUOUS
 62
    7
 10
162.44577594052862
 20
222.11999699999996
 11
162.44577594052862
 21
212.31999389999999
  0
LINE
  8
_0-2_ケ__ブル付コネクタ
  6
CONTINUOUS
 62
    7
 10
177.11377464052865
 20
214.51999089999998
 11
176.88126464052863
 21
214.51999089999998
  0
ARC
  8
_0-2_ケ__ブル付コネクタ
  6
CONTINUOUS
 62
    7
 10
176.56766264052862
 20
214.56859009999997
 40
0.3172827999999999
 50
351.19461059999998
 51
28.507507300000221
  0
LINE
  8
_0-2_ケ__ブル付コネクタ
  6
CONTINUOUS
 62
    7
 10
176.88126464052863
 20
212.11729619999997
 11
176.88126464052863
 21
214.51999089999998
  0
LINE
  8
_0-2_ケ__ブル付コネクタ
  6
CONTINUOUS
 62
    7
 10
162.69677484052863
 20
212.01039758603628
 11
162.69677484052863
 21
211.91999999999996
  0
LINE
  8
_0-2_ケ__ブル付コネクタ
  6
CONTINUOUS
 62
    7
 10
173.44407384052863
 20
211.41999999999996
 11
166.16817184052863
 21
211.41999999999996
  0
LINE
  8
_0-2_ケ__ブル付コネクタ
  6
CONTINUOUS
 62
    7
 10
167.24406184052862
 20
211.41999999999996
 11
166.29407274052863
 21
211.41999999999996
  0
LINE
  8
_0-2_ケ__ブル付コネクタ
  6
CONTINUOUS
 62
    7
 10
166.29407274052863
 20
211.41999999999996
 11
166.16817184052863
 21
211.41999999999996
  0
LINE
  8
_0-2_ケ__ブル付コネクタ
  6
CONTINUOUS
 62
    7
 10
165.11457194052863
 20
214.51999089999998
 11
165.03886164052864
 21
214.51999089999998
  0
LINE
  8
_0-2_ケ__ブル付コネクタ
  6
CONTINUOUS
 62
    7
 10
165.03886164052864
 20
214.51999089999998
 11
164.47057474052863
 21
214.51999089999998
  0
LINE
  8
_0-2_ケ__ブル付コネクタ
  6
CONTINUOUS
 62
    7
 10
176.68587294052861
 20
214.51999089999998
 11
176.67187304052865
 21
214.51999089999998
  0
LINE
  8
_0-2_ケ__ブル付コネクタ
  6
CONTINUOUS
 62
    7
 10
176.65057464052865
 20
211.91999999999996
 11
176.65057464052865
 21
212.23539919999996
  0
LINE
  8
_0-2_ケ__ブル付コネクタ
  6
CONTINUOUS
 62
    7
 10
176.88126464052863
 20
214.51999089999998
 11
176.68587294052861
 21
214.51999089999998
  0
LINE
  8
_0-2_ケ__ブル付コネクタ
  6
CONTINUOUS
 62
    7
 10
162.49686184052862
 20
212.2569816464183
 11
162.49686184052862
 21
212.11729619999997
  0
LINE
  8
_0-2_ケ__ブル付コネクタ
  6
CONTINUOUS
 62
    7
 10
176.43287364052864
 20
211.91999999999996
 11
176.65057464052865
 21
211.91999999999996
  0
ARC
  8
_0-2_ケ__ブル付コネクタ
  6
CONTINUOUS
 62
    7
 10
176.07477274052863
 20
212.82689089999997
 40
1.074241
 50
302.41380309999931
 51
318.6551970999999
  0
ARC
  8
_0-2_ケ__ブル付コネクタ
  6
CONTINUOUS
 62
    7
 10
177.50697464052865
 20
211.63429449999998
 40
0.7904498000000002
 50
119.82720950000015
 51
142.33691020000035
  0
LINE
  8
_0-2_ケ__ブル付コネクタ
  6
CONTINUOUS
 62
    7
 10
169.94957494052863
 20
222.11999699999996
 11
169.94957494052863
 21
212.31999389999999
  0
LINE
  8
_0-2_ケ__ブル付コネクタ
  6
CONTINUOUS
 62
    7
 10
169.74406184052862
 20
223.01999089999998
 11
176.69407364052864
 21
223.01999089999998
  0
LINE
  8
_0-2_ケ__ブル付コネクタ
  6
CONTINUOUS
 62
    7
 10
162.79407304052864
 20
223.01999089999998
 11
169.74406184052862
 21
223.01999089999998
  0
LINE
  8
_0-2_ケ__ブル付コネクタ
  6
CONTINUOUS
 62
    7
 10
177.21908624052861
 20
222.11999699999996
 11
176.29626174052862
 21
222.11999699999996
  0
LINE
  8
_0-2_ケ__ブル付コネクタ
  6
CONTINUOUS
 62
    7
 10
176.29187484052864
 20
222.12039369999997
 11
176.29626174052862
 21
222.11999699999996
  0
LINE
  8
_0-2_ケ__ブル付コネクタ
  6
CONTINUOUS
 62
    7
 10
175.74997464052865
 20
222.83999819999997
 11
175.26767484052863
 21
222.83999819999997
  0
LINE
  8
_0-2_ケ__ブル付コネクタ
  6
CONTINUOUS
 62
    7
 10
175.31686584052864
 20
222.11999699999996
 11
174.68847364052866
 21
222.11999699999996
  0
LINE
  8
_0-2_ケ__ブル付コネクタ
  6
CONTINUOUS
 62
    7
 10
174.12507384052864
 20
222.83999819999997
 11
173.43616284052862
 21
222.83999819999997
  0
LINE
  8
_0-2_ケ__ブル付コネクタ
  6
CONTINUOUS
 62
    7
 10
173.28966274052863
 20
222.11999699999996
 11
172.48427384052863
 21
222.11999699999996
  0
LINE
  8
_0-2_ケ__ブル付コネクタ
  6
CONTINUOUS
 62
    7
 10
171.97166174052862
 20
222.83999819999997
 11
171.15937174052863
 21
222.83999819999997
  0
LINE
  8
_0-2_ケ__ブル付コネクタ
  6
CONTINUOUS
 62
    7
 10
170.83487474052865
 20
222.11999699999996
 11
169.94957494052863
 21
222.11999699999996
  0
LINE
  8
_0-2_ケ__ブル付コネクタ
  6
CONTINUOUS
 62
    7
 10
169.54957334052861
 20
222.83999819999997
 11
168.71187384052863
 21
222.83999819999997
  0
LINE
  8
_0-2_ケ__ブル付コネクタ
  6
CONTINUOUS
 62
    7
 10
168.24847174052863
 20
222.11999699999996
 11
167.39017284052863
 21
222.11999699999996
  0
LINE
  8
_0-2_ケ__ブル付コネクタ
  6
CONTINUOUS
 62
    7
 10
167.15097184052863
 20
222.83999819999997
 11
166.38887584052864
 21
222.83999819999997
  0
LINE
  8
_0-2_ケ__ブル付コネクタ
  6
CONTINUOUS
 62
    7
 10
165.84257284052862
 20
222.11999699999996
 11
163.39737504052863
 21
222.11999699999996
  0
LINE
  8
_0-2_ケ__ブル付コネクタ
  6
CONTINUOUS
 62
    7
 10
163.54367204052863
 20
222.83999819999997
 11
163.18827194052861
 21
222.83999819999997
  0
LINE
  8
_0-2_ケ__ブル付コネクタ
  6
CONTINUOUS
 62
    7
 10
162.67577494052861
 20
222.11999699999996
 11
162.44577594052862
 21
222.11999699999996
  0
LINE
  8
_0-2_ケ__ブル付コネクタ
  6
CONTINUOUS
 62
    7
 10
162.77006284052862
 20
222.83999819999997
 11
162.69677484052863
 21
222.83999819999997
  0
LINE
  8
_0-2_ケ__ブル付コネクタ
  6
CONTINUOUS
 62
    7
 10
170.83487474052865
 20
212.31999389999999
 11
170.83487474052865
 21
222.11999699999996
  0
LINE
  8
_0-2_ケ__ブル付コネクタ
  6
CONTINUOUS
 62
    7
 10
168.24847174052863
 20
212.31999389999999
 11
168.24847174052863
 21
222.11999699999996
  0
LINE
  8
_0-2_ケ__ブル付コネクタ
  6
CONTINUOUS
 62
    7
 10
167.39017284052863
 20
222.11999699999996
 11
167.39017284052863
 21
212.31999389999999
  0
LINE
  8
_0-2_ケ__ブル付コネクタ
  6
CONTINUOUS
 62
    7
 10
174.51670594052865
 20
246.6198901999999
 11
174.96906794052867
 21
241.6199969999999
  0
LINE
  8
_0-2_ケ__ブル付コネクタ
  6
CONTINUOUS
 62
    7
 10
165.51908584052867
 20
252.12000309999996
 11
164.84049784052868
 21
244.6198901999999
  0
LINE
  8
_0-2_ケ__ブル付コネクタ
  6
CONTINUOUS
 62
    7
 10
164.84049784052868
 20
244.6198901999999
 11
164.5690736405287
 21
241.6199969999999
  0
ARC
  8
_0-2_ケ__ブル付コネクタ
  6
CONTINUOUS
 62
    7
 10
176.93167317412082
 20
214.62319872062608
 40
0.2398780416532019
 50
146.09974823126106
 51
181.03725346105
  0
ARC
  8
_0-2_ケ__ブル付コネクタ
  6
CONTINUOUS
 62
    7
 10
176.60069246479219
 20
214.92272173470482
 40
0.2117996643044357
 50
308.51078019650828
 51
359.26369947583123
  0
ARC
  8
_0-2_ケ__ブル付コネクタ
  6
CONTINUOUS
 62
    7
 10
176.85173784752331
 20
214.51611403345339
 40
0.2040249208652975
 50
91.949198872551179
 51
141.00306295574683
  0
ARC
  8
_0-2_ケ__ブル付コネクタ
  6
CONTINUOUS
 62
    7
 10
176.84445732766531
 20
214.91800091812402
 40
0.1980071241074936
 50
270.5868681888918
 51
0.5558091952889545
  0
LINE
  8
_0-2_ケ__ブル付コネクタ
  6
CONTINUOUS
 62
    7
 10
176.67187304052865
 20
212.31999389999996
 11
176.65057464052865
 21
212.23539919999996
  0
LINE
  8
_0-2_ケ__ブル付コネクタ
  6
CONTINUOUS
 62
    7
 10
176.65057464052865
 20
212.23539919999996
 11
176.43287364052864
 21
211.91999999999996
  0
LINE
  8
_0-2_ケ__ブル付コネクタ
  6
CONTINUOUS
 62
    7
 10
175.74997464052865
 20
211.91999999999996
 11
176.29626174052862
 21
212.31999389999999
  0
LINE
  8
_0-2_ケ__ブル付コネクタ
  6
CONTINUOUS
 62
    7
 10
175.31686584052864
 20
212.31999389999996
 11
175.26767484052863
 21
211.91999999999996
  0
LINE
  8
_0-2_ケ__ブル付コネクタ
  6
CONTINUOUS
 62
    7
 10
175.31686584052864
 20
222.11999699999996
 11
175.26767484052863
 21
222.83999819999997
  0
LINE
  8
_0-2_ケ__ブル付コネクタ
  6
CONTINUOUS
 62
    7
 10
175.74997464052865
 20
222.83999819999997
 11
176.29187484052864
 21
222.12039369999997
  0
LINE
  8
_0-2_ケ__ブル付コネクタ
  6
CONTINUOUS
 62
    7
 10
174.12507384052864
 20
222.83999819999997
 11
174.68847364052866
 21
222.11999699999996
  0
LINE
  8
_0-2_ケ__ブル付コネクタ
  6
CONTINUOUS
 62
    7
 10
173.28966274052863
 20
222.11999699999996
 11
173.43616284052862
 21
222.83999819999997
  0
LINE
  8
_0-2_ケ__ブル付コネクタ
  6
CONTINUOUS
 62
    7
 10
171.97166174052862
 20
222.83999819999997
 11
172.48427384052863
 21
222.11999699999996
  0
LINE
  8
_0-2_ケ__ブル付コネクタ
  6
CONTINUOUS
 62
    7
 10
170.83487474052865
 20
222.11999699999996
 11
171.15937174052863
 21
222.83999819999997
  0
LINE
  8
_0-2_ケ__ブル付コネクタ
  6
CONTINUOUS
 62
    7
 10
169.54957334052861
 20
222.83999819999997
 11
169.94957494052863
 21
222.11999699999996
  0
LINE
  8
_0-2_ケ__ブル付コネクタ
  6
CONTINUOUS
 62
    7
 10
168.71187384052863
 20
222.83999819999997
 11
168.24847174052863
 21
222.11999699999996
  0
LINE
  8
_0-2_ケ__ブル付コネクタ
  6
CONTINUOUS
 62
    7
 10
167.15097184052863
 20
222.83999819999997
 11
167.39017284052863
 21
222.11999699999996
  0
LINE
  8
_0-2_ケ__ブル付コネクタ
  6
CONTINUOUS
 62
    7
 10
166.38887584052864
 20
222.83999819999997
 11
165.84257284052862
 21
222.11999699999996
  0
LINE
  8
_0-2_ケ__ブル付コネクタ
  6
CONTINUOUS
 62
    7
 10
163.54367204052863
 20
222.83999819999997
 11
163.39737504052863
 21
222.11999699999996
  0
LINE
  8
_0-2_ケ__ブル付コネクタ
  6
CONTINUOUS
 62
    7
 10
162.44577594052862
 20
222.11999699999996
 11
162.77006284052862
 21
222.83999819999997
  0
LINE
  8
_0-2_ケ__ブル付コネクタ
  6
CONTINUOUS
 62
    7
 10
162.79407304052864
 20
223.01999089999998
 11
162.31908624052863
 21
222.12079039999998
  0
LINE
  8
_0-2_ケ__ブル付コネクタ
  6
CONTINUOUS
 62
    7
 10
163.18827194052861
 20
222.83999819999997
 11
162.67577494052861
 21
222.11999699999996
  0
LINE
  8
_0-2_ケ__ブル付コネクタ
  6
CONTINUOUS
 62
    7
 10
162.77006284052862
 20
211.91999999999996
 11
162.44577594052862
 21
212.31999389999996
  0
LINE
  8
_0-2_ケ__ブル付コネクタ
  6
CONTINUOUS
 62
    7
 10
163.54367204052863
 20
211.91999999999996
 11
163.39737504052863
 21
212.31999389999996
  0
LINE
  8
_0-2_ケ__ブル付コネクタ
  6
CONTINUOUS
 62
    7
 10
163.90717494052862
 20
212.31999389999999
 11
164.47057474052863
 21
211.9254971130141
  0
ARC
  8
_0-2_ケ__ブル付コネクタ
  6
CONTINUOUS
 62
    7
 10
164.98327624122709
 20
214.89777975184984
 40
0.1848963536338316
 50
173.10464609252963
 51
254.04826606573971
  0
ARC
  8
_0-2_ケ__ブル付コネクタ
  6
CONTINUOUS
 62
    7
 10
164.8381169162902
 20
214.54150799453447
 40
0.2018946003903253
 50
353.88203269607334
 51
62.141023881221123
  0
ARC
  8
_0-2_ケ__ブル付コネクタ
  6
CONTINUOUS
 62
    7
 10
164.3536358128114
 20
214.90202081537387
 40
0.1831556574909349
 50
174.36657852570514
 51
263.6098263694783
  0
LINE
  8
_0-2_ケ__ブル付コネクタ
  6
CONTINUOUS
 62
    7
 10
164.4705747405286
 20
214.51999089999998
 11
164.46846148378037
 21
214.55472548885348
  0
LINE
  8
_0-2_ケ__ブル付コネクタ
  6
CONTINUOUS
 62
    7
 10
164.46846148378037
 20
214.55472548885348
 11
164.46218592377255
 21
214.58840468480122
  0
LINE
  8
_0-2_ケ__ブル付コネクタ
  6
CONTINUOUS
 62
    7
 10
164.46218592377255
 20
214.58840468480122
 11
164.45193874022044
 21
214.6200051625168
  0
LINE
  8
_0-2_ケ__ブル付コネクタ
  6
CONTINUOUS
 62
    7
 10
164.45193874022044
 20
214.6200051625168
 11
164.43803128861092
 21
214.64856675747549
  0
LINE
  8
_0-2_ケ__ブル付コネクタ
  6
CONTINUOUS
 62
    7
 10
164.43803128861092
 20
214.64856675747549
 11
164.42088613982364
 21
214.67322164006731
  0
LINE
  8
_0-2_ケ__ブル付コネクタ
  6
CONTINUOUS
 62
    7
 10
164.42088613982364
 20
214.67322164006731
 11
164.40102424052861
 21
214.69322068416068
  0
LINE
  8
_0-2_ケ__ブル付コネクタ
  6
CONTINUOUS
 62
    7
 10
164.40102424052861
 20
214.69322068416068
 11
164.37904908448536
 21
214.70795622892081
  0
LINE
  8
_0-2_ケ__ブル付コネクタ
  6
CONTINUOUS
 62
    7
 10
164.37904908448536
 20
214.70795622892081
 11
164.35562837569026
 21
214.71698054227673
  0
LINE
  8
_0-2_ケ__ブル付コネクタ
  6
CONTINUOUS
 62
    7
 10
164.35562837569026
 20
214.71698054227673
 11
164.33147374052862
 21
214.72001942503366
  0
LINE
  8
_0-2_ケ__ブル付コネクタ
  6
CONTINUOUS
 62
    7
 10
164.33147374052862
 20
214.72001942503366
 11
164.30731910536699
 21
214.71698054227673
  0
LINE
  8
_0-2_ケ__ブル付コネクタ
  6
CONTINUOUS
 62
    7
 10
164.30731910536699
 20
214.71698054227673
 11
164.28389839657189
 21
214.70795622892081
  0
LINE
  8
_0-2_ケ__ブル付コネクタ
  6
CONTINUOUS
 62
    7
 10
164.28389839657189
 20
214.70795622892081
 11
164.26192324052863
 21
214.69322068416068
  0
LINE
  8
_0-2_ケ__ブル付コネクタ
  6
CONTINUOUS
 62
    7
 10
164.26192324052863
 20
214.69322068416068
 11
164.24206134123361
 21
214.67322164006731
  0
LINE
  8
_0-2_ケ__ブル付コネクタ
  6
CONTINUOUS
 62
    7
 10
164.24206134123361
 20
214.67322164006731
 11
164.22491619244633
 21
214.64856675747549
  0
LINE
  8
_0-2_ケ__ブル付コネクタ
  6
CONTINUOUS
 62
    7
 10
164.22491619244633
 20
214.64856675747549
 11
164.2110087408368
 21
214.6200051625168
  0
LINE
  8
_0-2_ケ__ブル付コネクタ
  6
CONTINUOUS
 62
    7
 10
164.2110087408368
 20
214.6200051625168
 11
164.20076155728469
 21
214.58840468480122
  0
LINE
  8
_0-2_ケ__ブル付コネクタ
  6
CONTINUOUS
 62
    7
 10
164.20076155728469
 20
214.58840468480122
 11
164.19448599727687
 21
214.55472548885348
  0
LINE
  8
_0-2_ケ__ブル付コネクタ
  6
CONTINUOUS
 62
    7
 10
164.19448599727687
 20
214.55472548885348
 11
164.19237274052864
 21
214.51999089999998
  0
ARC
  8
_0-2_ケ__ブル付コネクタ
  6
CONTINUOUS
 62
    7
 10
164.26572668340401
 20
214.57042988254693
 40
0.3620820946682655
 50
105.10621590410388
 51
188.00749358974505
  0
LINE
  8
_0-2_ケ__ブル付コネクタ
  6
CONTINUOUS
 62
    7
 10
165.03886164052864
 20
211.91999999999996
 11
165.11457194052863
 21
212.31999389999996
  0
LINE
  8
_0-2_ケ__ブル付コネクタ
  6
CONTINUOUS
 62
    7
 10
167.15097184052863
 20
211.91999999999996
 11
167.39017284052863
 21
212.31999389999996
  0
LINE
  8
_0-2_ケ__ブル付コネクタ
  6
CONTINUOUS
 62
    7
 10
168.24847174052863
 20
212.31999389999996
 11
168.71187384052863
 21
211.91999999999996
  0
LINE
  8
_0-2_ケ__ブル付コネクタ
  6
CONTINUOUS
 62
    7
 10
169.54957334052861
 20
211.91999999999996
 11
169.94957494052863
 21
212.31999389999996
  0
LINE
  8
_0-2_ケ__ブル付コネクタ
  6
CONTINUOUS
 62
    7
 10
170.83487474052865
 20
212.31999389999996
 11
171.15937174052863
 21
211.91999999999996
  0
LINE
  8
_0-2_ケ__ブル付コネクタ
  6
CONTINUOUS
 62
    7
 10
171.97166174052862
 20
211.91999999999996
 11
172.48427384052863
 21
212.31999389999996
  0
LINE
  8
_0-2_ケ__ブル付コネクタ
  6
CONTINUOUS
 62
    7
 10
173.28966274052863
 20
212.31999389999996
 11
173.43616284052862
 21
211.91999999999996
  0
LINE
  8
_0-2_ケ__ブル付コネクタ
  6
CONTINUOUS
 62
    7
 10
174.12507384052864
 20
211.91999999999996
 11
174.68847364052866
 21
212.31999389999999
  0
LINE
  8
_0-2_ケ__ブル付コネクタ
  6
CONTINUOUS
 62
    7
 10
174.5167059405286
 20
246.61989019999996
 11
174.01908584052862
 21
252.12000309999999
  0
LINE
  8
_0-2_ケ__ブル付コネクタ
  6
CONTINUOUS
 62
    7
 10
172.76908584052862
 20
258.42000039999999
 11
172.76908584052862
 21
252.11989019999996
  0
ARC
  8
_0-2_ケ__ブル付コネクタ
  6
CONTINUOUS
 62
    7
 10
182.76908584052862
 20
258.42000039999999
 40
10
 50
90
 51
179.99999999999994
  0
LINE
  8
_0-2_ケ__ブル付コネクタ
  6
CONTINUOUS
 62
    7
 10
166.76909483255741
 20
258.42000468165094
 11
166.76908584052862
 21
252.11989019999996
  0
ARC
  8
_0-2_ケ__ブル付コネクタ
  6
CONTINUOUS
 62
    7
 10
182.76909483254113
 20
258.4199818451674
 40
16
 50
89.999918222867095
 51
179.99991822286711
  0
LINE
  8
_0-0_
  6
CONTINUOUS
 62
    7
 10
166.48817248105721
 20
54.719999999999985
 11
166.48817248105721
 21
60.480000000000047
  0
ARC
  8
_0-0_
  6
CONTINUOUS
 62
    7
 10
156.48817248105721
 20
54.719999999999985
 40
10
 50
270
 51
0
  0
LINE
  8
_0-0_
  6
CONTINUOUS
 62
    7
 10
52.588172481057256
 20
143.40973841108578
 11
52.588172481057256
 21
128.55500000000001
  0
ARC
  8
_0-0_
  6
CONTINUOUS
 62
    7
 10
62.588172481057256
 20
143.40973841108578
 40
10
 50
90
 51
180
  0
LINE
  8
_0-0_
  6
CONTINUOUS
 62
    7
 10
46.488172481057234
 20
143.50973841108578
 11
46.488172481057234
 21
128.55500000000001
  0
ARC
  8
_0-0_
  6
CONTINUOUS
 62
    7
 10
62.488172481057234
 20
143.50973841108578
 40
16
 50
90
 51
180
  0
LINE
  8
_0-0_
  6
CONTINUOUS
 62
    7
 10
172.58817248105723
 20
54.619999999999962
 11
172.58817248105723
 21
60.480000000000047
  0
ARC
  8
_0-0_
  6
CONTINUOUS
 62
    7
 10
156.58817248105723
 20
54.619999999999962
 40
16
 50
270
 51
0
  0
LINE
  8
_0-0_
  6
CONTINUOUS
 62
    7
 10
122.81817248105726
 20
44.719999999999985
 11
156.48817248105721
 21
44.719999999999985
  0
ARC
  8
_0-0_
  6
CONTINUOUS
 62
    7
 10
122.81817248105726
 20
54.719999999999985
 40
10
 50
180
 51
270
  0
ARC
  8
_0-0_
  6
CONTINUOUS
 62
    7
 10
96.718172481057238
 20
143.40973841108578
 40
10
 50
0
 51
90.000000000000028
  0
LINE
  8
_0-0_
  6
CONTINUOUS
 62
    7
 10
62.588172481057256
 20
153.40973841108578
 11
96.718172481057238
 21
153.40973841108578
  0
LINE
  8
_0-0_
  6
CONTINUOUS
 62
    7
 10
96.81817248105726
 20
159.50973841108578
 11
62.488172481057234
 21
159.50973841108578
  0
ARC
  8
_0-0_
  6
CONTINUOUS
 62
    7
 10
96.81817248105726
 20
143.50973841108578
 40
16
 50
0
 51
90
  0
ARC
  8
_0-0_
  6
CONTINUOUS
 62
    7
 10
122.71817248105724
 20
54.619999999999962
 40
16
 50
180
 51
270
  0
LINE
  8
_0-0_
  6
CONTINUOUS
 62
    7
 10
156.58817248105723
 20
38.619999999999962
 11
122.71817248105724
 21
38.619999999999962
  0
ARC
  8
_0-0_
  6
CONTINUOUS
 62
    7
 10
111.29362936079295
 20
102.76178162762602
 40
1.6605671173655918
 50
23.352173376327876
 51
156.64782662367233
  0
ARC
  8
_0-0_
  6
CONTINUOUS
 62
    7
 10
108.2445431202643
 20
102.76178162762602
 40
1.6605671173655918
 50
23.352173376327677
 51
156.64782662367213
  0
ARC
  8
_0-0_
  6
CONTINUOUS
 62
    7
 10
108.2445431202643
 20
104.07821837237393
 40
1.6605671173655918
 50
203.35217337632787
 51
336.6478266236723
  0
ARC
  8
_0-0_
  6
CONTINUOUS
 62
    7
 10
108.2445431202643
 20
100.07821837237393
 40
1.6605671173655918
 50
203.35217337632787
 51
336.6478266236723
  0
ARC
  8
_0-0_
  6
CONTINUOUS
 62
    7
 10
111.29362936079295
 20
100.07821837237393
 40
1.6605671173655918
 50
203.35217337632767
 51
336.64782662367213
  0
ARC
  8
_0-0_
  6
CONTINUOUS
 62
    7
 10
111.29362936079295
 20
98.761781627626021
 40
1.6605671173655911
 50
23.352173376327851
 51
156.6478266236723
  0
LINE
  8
_0-0_
  6
CONTINUOUS
 62
    7
 10
106.71817248105724
 20
54.619999999999962
 11
106.71817248105724
 21
99.419999999999973
  0
LINE
  8
_0-0_
  6
CONTINUOUS
 62
    7
 10
106.71817248105724
 20
103.41999999999997
 11
106.71817248105724
 21
143.40973841108578
  0
LINE
  8
_0-0_
  6
CONTINUOUS
 62
    7
 10
112.81817248105726
 20
143.50973841108578
 11
112.81817248105726
 21
103.41999999999997
  0
LINE
  8
_0-0_
  6
CONTINUOUS
 62
    7
 10
112.81817248105726
 20
99.419999999999945
 11
112.81817248105726
 21
54.719999999999985
  0
CIRCLE
  8
_0-1_コンバ__タ
  6
CONTINUOUS
 62
    7
 10
189.76908624052862
 20
236.41999999999996
 40
4
  0
LINE
  8
_0-1_コンバ__タ
  6
CONTINUOUS
 62
    7
 10
174.76908624052862
 20
236.41999999999996
 11
177.66686371939579
 21
235.64354286469239
  0
LINE
  8
_0-1_コンバ__タ
  6
CONTINUOUS
 62
    7
 10
185.76908624052862
 20
236.41999999999996
 11
174.76908624052862
 21
236.41999999999996
  0
LINE
  8
_0-1_コンバ__タ
  6
CONTINUOUS
 62
    7
 10
174.76908624052862
 20
236.41999999999996
 11
177.66686371939579
 21
237.19645713530753
  0
LINE
  8
_0-1_コンバ__タ
  6
CONTINUOUS
 62
    4
 10
204.76908624052859
 20
258.42000039999994
 11
204.76908624052859
 21
201.41999999999996
  0
CIRCLE
  8
_0-1_コンバ__タ
  6
CONTINUOUS
 62
    7
 10
69.96811415068612
 20
141.84312046102383
 40
4
  0
TEXT
  8
_0-1_コンバ__タ
 62
    7
 10
69.21811415068612
 20
140.34312046102383
 40
3
 41
1
 50
0
  1
1
  0
POINT
  8
_0-0_
 62
    6
 10
64.769086240528623
 20
128.66499999999996
  0
LINE
  8
_0-0_
  6
CONTINUOUS
 62
    4
 10
64.769086240528623
 20
128.66499999999996
 11
57.038172481057245
 21
128.66499999999996
  0
LINE
  8
_0-0_
  6
CONTINUOUS
 62
    4
 10
119.78908624052863
 20
166.4199999999999
 11
119.78908624052863
 21
56.419999999999973
  0
LINE
  8
_0-0_
  6
CONTINUOUS
 62
    4
 10
34.769086240528679
 20
166.43999999999997
 11
119.76908624052862
 21
166.43999999999997
  0
LINE
  8
_0-0_
  6
CONTINUOUS
 62
    4
 10
139.76908624052862
 20
131.43999999999997
 11
144.76908624052862
 21
131.43999999999997
  0
LINE
  8
_0-0_
  6
CONTINUOUS
 62
    4
 10
139.78908624052863
 20
131.4199999999999
 11
139.78908624052863
 21
56.419999999999973
  0
LINE
  8
_0-0_
  6
CONTINUOUS
 62
    4
 10
119.76908624052868
 20
56.439999999999969
 11
139.76908624052862
 21
56.439999999999969
  0
POINT
  8
_0-0_
 62
    6
 10
139.76908624052862
 20
131.41999999999996
  0
LINE
  8
_0-1_コンバ__タ
  6
CONTINUOUS
 62
    7
 10
51.681264960038959
 20
124.94521075905718
 11
53.300754076062844
 21
127.4705335113168
  0
LINE
  8
_0-1_コンバ__タ
  6
CONTINUOUS
 62
    7
 10
51.681264960038959
 20
124.94521075905718
 11
54.346445051797872
 21
126.3224598572569
  0
LINE
  8
_0-1_コンバ__タ
  6
CONTINUOUS
 62
    7
 10
67.134254274948034
 20
139.02013654242251
 11
51.681264960038959
 21
124.94521075905718
  0
TEXT
  8
_0-0_
 62
    7
 10
349.26908624052868
 20
14.919999999999959
 40
3
 41
1
 50
0
  1
スマート水位計
  0
TEXT
  8
_1-f_文字
 62
    7
 10
304.76908624052862
 20
91.419999999999973
 40
3
 41
1
 50
0
  1
４）１００ｍ計：Ｌ＝１３０ｍ　－０ｍ～＋５ｍ以内
  0
TEXT
  8
_1-f_文字
 62
    7
 10
304.76908624052862
 20
106.41999999999997
 40
3
 41
1
 50
0
  1
１）　　１ｍ計：Ｌ＝　１０ｍ　－０ｍ～＋１ｍ以内
  0
TEXT
  8
_1-f_文字
 62
    7
 10
304.76908624052862
 20
101.41999999999997
 40
3
 41
1
 50
0
  1
２）　１０ｍ計：Ｌ＝　３０ｍ　－０ｍ～＋２ｍ以内
  0
TEXT
  8
_1-f_文字
 62
    7
 10
304.76908624052862
 20
96.419999999999959
 40
3
 41
1
 50
0
  1
３）　５０ｍ計：Ｌ＝　７０ｍ　－０ｍ～＋３ｍ以内
  0
LINE
  8
_0-2_ケ__ブル付コネクタ
  6
CONTINUOUS
 62
    7
 10
219.06908314052859
 20
274.41996939999996
 11
219.06908314052859
 21
268.41996939999996
  0
LINE
  8
_0-2_ケ__ブル付コネクタ
  6
CONTINUOUS
 62
    7
 10
249.09088794052857
 20
269.77346949999998
 11
249.02138414052851
 21
268.27507249999996
  0
LINE
  8
_0-2_ケ__ブル付コネクタ
  6
CONTINUOUS
 62
    7
 10
254.06908314052859
 20
272.96248340465928
 11
249.06908314052859
 21
272.64237419571901
  0
LINE
  8
_0-2_ケ__ブル付コネクタ
  6
CONTINUOUS
 62
    7
 10
254.06908314052859
 20
272.36116925726651
 11
249.06908314052859
 21
272.04112108969809
  0
LINE
  8
_0-2_ケ__ブル付コネクタ
  6
CONTINUOUS
 62
    7
 10
249.06908314052859
 20
273.08955123546491
 11
239.52178284052857
 21
272.9804704
  0
LINE
  8
_0-2_ケ__ブル付コネクタ
  6
CONTINUOUS
 62
    7
 10
248.93797914052848
 20
271.6469745
 11
249.0337891405286
 21
270.1469745
  0
LINE
  8
_0-2_ケ__ブル付コネクタ
  6
CONTINUOUS
 62
    7
 10
219.06908314052859
 20
271.63586952014043
 11
248.93797914052848
 21
271.6469745
  0
LINE
  8
_0-2_ケ__ブル付コネクタ
  6
CONTINUOUS
 62
    7
 10
241.09857834052858
 20
270.14407539999996
 11
249.0337891405286
 21
270.1469745
  0
LINE
  8
_0-2_ケ__ブル付コネクタ
  6
CONTINUOUS
 62
    7
 10
254.06908317121767
 20
270.14886640001123
 11
254.06858007121755
 21
271.64886650001125
  0
LINE
  8
_0-2_ケ__ブル付コネクタ
  6
CONTINUOUS
 62
    7
 10
254.06908314052859
 20
270.58235464785878
 11
248.99188914052849
 21
270.70086839999999
  0
LINE
  8
_0-2_ケ__ブル付コネクタ
  6
CONTINUOUS
 62
    7
 10
254.06908314052859
 20
270.88246026220537
 11
248.99887714052849
 21
271.0007799
  0
LINE
  8
_0-2_ケ__ブル付コネクタ
  6
CONTINUOUS
 62
    7
 10
254.06908314052859
 20
270.28224391528994
 11
248.98488514052858
 21
270.40097249999997
  0
LINE
  8
_0-2_ケ__ブル付コネクタ
  6
CONTINUOUS
 62
    7
 10
254.06908314052859
 20
272.66186403831756
 11
249.06908314052859
 21
272.34173728517192
  0
LINE
  8
_0-2_ケ__ブル付コネクタ
  6
CONTINUOUS
 62
    7
 10
254.06908317121767
 20
272.24037360001125
 11
254.06858007121755
 21
273.74037350001129
  0
LINE
  8
_0-2_ケ__ブル付コネクタ
  6
CONTINUOUS
 62
    7
 10
254.06908314052859
 20
268.79115578043638
 11
249.05618914052857
 21
269.02427849999998
  0
LINE
  8
_0-2_ケ__ブル付コネクタ
  6
CONTINUOUS
 62
    7
 10
254.06908314052859
 20
269.09150438055707
 11
249.07009024052849
 21
269.32397639999999
  0
LINE
  8
_0-2_ケ__ブル付コネクタ
  6
CONTINUOUS
 62
    7
 10
254.06908314052859
 20
268.49081060453284
 11
249.0421821405285
 21
268.72456539999996
  0
LINE
  8
_0-2_ケ__ブル付コネクタ
  6
CONTINUOUS
 62
    7
 10
249.09088794052857
 20
269.77346949999998
 11
219.06908314052859
 21
271.16534680936616
  0
LINE
  8
_0-2_ケ__ブル付コネクタ
  6
CONTINUOUS
 62
    7
 10
249.02138414052851
 20
268.27517859999995
 11
219.06908314052862
 21
269.66373826170229
  0
LINE
  8
_0-2_ケ__ブル付コネクタ
  6
CONTINUOUS
 62
    7
 10
249.07518664052847
 20
273.59066949999999
 11
219.06908314052859
 21
271.67419634612156
  0
LINE
  8
_0-2_ケ__ブル付コネクタ
  6
CONTINUOUS
 62
    7
 10
248.97959014052847
 20
275.08757249999996
 11
249.07518664052847
 21
273.59066949999999
  0
LINE
  8
_0-2_ケ__ブル付コネクタ
  6
CONTINUOUS
 62
    7
 10
254.06917517121767
 20
274.24037350001129
 11
254.06858007121755
 21
275.74037350001129
  0
LINE
  8
_0-2_ケ__ブル付コネクタ
  6
CONTINUOUS
 62
    7
 10
254.06908314052859
 20
274.66186403831756
 11
249.02738114052849
 21
274.33906729999995
  0
LINE
  8
_0-2_ケ__ブル付コネクタ
  6
CONTINUOUS
 62
    7
 10
254.06908314052859
 20
274.96248321232486
 11
249.0081852405286
 21
274.63847549999997
  0
LINE
  8
_0-2_ケ__ブル付コネクタ
  6
CONTINUOUS
 62
    7
 10
254.06908314052859
 20
274.36125897785746
 11
249.04648514052857
 21
274.03967439999997
  0
LINE
  8
_0-2_ケ__ブル付コネクタ
  6
CONTINUOUS
 62
    7
 10
248.97959014052847
 20
275.08757249999996
 11
219.06908314052862
 21
273.17724106476931
  0
LINE
  8
_0-2_ケ__ブル付コネクタ
  6
CONTINUOUS
 62
    7
 10
249.06908314052859
 20
273.08955123546491
 11
249.06908314052859
 21
271.58945333543238
  0
LINE
  8
_0-2_ケ__ブル付コネクタ
  6
CONTINUOUS
 62
    7
 10
249.06908314052859
 20
271.58945333543238
 11
248.94174613608209
 21
271.58799847108389
  0
LINE
  8
_0-2_ケ__ブル付コネクタ
  6
CONTINUOUS
 62
    7
 10
254.06908314052859
 20
275.74046568517809
 11
254.06908314052859
 21
274.24046549999997
  0
LINE
  8
_0-2_ケ__ブル付コネクタ
  6
CONTINUOUS
 62
    7
 10
254.06908314052859
 20
273.74046568517917
 11
254.06908314052859
 21
272.24046509999999
  0
LINE
  8
_0-2_ケ__ブル付コネクタ
  6
CONTINUOUS
 62
    7
 10
254.06908314052859
 20
271.64886668517806
 11
254.06908314052859
 21
270.14886639999997
  0
LINE
  8
_0-2_ケ__ブル付コネクタ
  6
CONTINUOUS
 62
    7
 10
254.06908314052859
 20
269.55080415918826
 11
254.06908314052859
 21
268.05080387401011
  0
LINE
  8
_0-2_ケ__ブル付コネクタ
  6
CONTINUOUS
 62
    7
 10
254.06858007121755
 20
273.74046550001128
 11
269.76908624052862
 21
273.7459868313731
  0
LINE
  8
_0-2_ケ__ブル付コネクタ
  6
CONTINUOUS
 62
    7
 10
254.06908317121767
 20
272.24046510001131
 11
269.76908624052862
 21
272.24598621691626
  0
LINE
  8
_0-2_ケ__ブル付コネクタ
  6
CONTINUOUS
 62
    7
 10
254.06858007121755
 20
271.64886650001125
 11
269.76908624052862
 21
271.65438779795159
  0
LINE
  8
_0-2_ケ__ブル付コネクタ
  6
CONTINUOUS
 62
    7
 10
254.06908317121767
 20
270.14886640001123
 11
269.76908624052862
 21
270.1543875924549
  0
LINE
  8
_0-2_ケ__ブル付コネクタ
  6
CONTINUOUS
 62
    7
 10
254.06858007121755
 20
275.74046550001128
 11
269.76908624052862
 21
275.74598679795162
  0
LINE
  8
_0-2_ケ__ブル付コネクタ
  6
CONTINUOUS
 62
    7
 10
254.06908317121767
 20
274.24046550001128
 11
269.76908624052862
 21
274.2459866169163
  0
LINE
  8
_0-2_ケ__ブル付コネクタ
  6
CONTINUOUS
 62
    7
 10
269.76908624052862
 20
275.74598679795162
 11
269.76908624052862
 21
274.2459866169163
  0
LINE
  8
_0-2_ケ__ブル付コネクタ
  6
CONTINUOUS
 62
    7
 10
269.76908624052862
 20
269.55632527196178
 11
269.76908624052862
 21
268.05632506646504
  0
LINE
  8
_0-2_ケ__ブル付コネクタ
  6
CONTINUOUS
 62
    7
 10
269.76908624052862
 20
271.65438779795159
 11
269.76908624052862
 21
270.1543875924549
  0
LINE
  8
_0-2_ケ__ブル付コネクタ
  6
CONTINUOUS
 62
    7
 10
269.76908624052862
 20
273.7459868313731
 11
269.76908624052862
 21
272.24598621691626
  0
LINE
  8
_0-2_ケ__ブル付コネクタ
  6
CONTINUOUS
 62
    7
 10
254.06908314052859
 20
269.55080415918826
 11
269.76908624052862
 21
269.55632527196178
  0
LINE
  8
_0-2_ケ__ブル付コネクタ
  6
CONTINUOUS
 62
    7
 10
254.06908317121767
 20
268.05080387402143
 11
269.76908624052862
 21
268.05632506646504
  0
POINT
  8
_0-1_コンバ__タ
 62
    6
 10
269.76908624052862
 20
258.42000039999994
  0
LINE
  8
_0-1_コンバ__タ
  6
CONTINUOUS
 62
    4
 10
269.76908624052862
 20
266.41999999999996
 11
269.76908624052862
 21
258.42000039999994
  0
LINE
  8
_0-1_コンバ__タ
  6
CONTINUOUS
 62
    4
 10
204.76908624052859
 20
258.42000039999994
 11
269.76908624052862
 21
258.42000039999994
  0
ARC
  8
_0-2_ケ__ブル付コネクタ
  6
CONTINUOUS
 62
    7
 10
199.15474593020221
 20
269.91996939999996
 40
1.700000000000002
 50
298.07248693585279
 51
61.927513064147163
  0
ARC
  8
_0-2_ケ__ブル付コネクタ
  6
CONTINUOUS
 62
    7
 10
200.75474593020212
 20
269.91996939999996
 40
1.700000000000002
 50
118.07248693585279
 51
241.92751306414709
  0
ARC
  8
_0-2_ケ__ブル付コネクタ
  6
CONTINUOUS
 62
    7
 10
195.68860454052853
 20
269.91996939999996
 40
1.700000000000002
 50
298.07248693585279
 51
61.927513064147163
  0
ARC
  8
_0-2_ケ__ブル付コネクタ
  6
CONTINUOUS
 62
    7
 10
197.28860454052867
 20
272.91996939999996
 40
1.700000000000002
 50
118.07248693585279
 51
241.92751306414709
  0
ARC
  8
_0-2_ケ__ブル付コネクタ
  6
CONTINUOUS
 62
    7
 10
195.68860454052853
 20
272.91996939999996
 40
1.700000000000002
 50
298.07248693585279
 51
61.927513064147163
  0
ARC
  8
_0-2_ケ__ブル付コネクタ
  6
CONTINUOUS
 62
    7
 10
200.75474593020212
 20
272.91996939999996
 40
1.700000000000002
 50
118.07248693585279
 51
241.92751306414709
  0
LINE
  8
_0-2_ケ__ブル付コネクタ
  6
CONTINUOUS
 62
    7
 10
182.76908584052862
 20
268.42000039999999
 11
196.48866266281655
 21
268.42000039999999
  0
LINE
  8
_0-2_ケ__ブル付コネクタ
  6
CONTINUOUS
 62
    7
 10
182.76911766902469
 20
274.41998184515109
 11
196.4886045405286
 21
274.41996939999996
  0
LINE
  8
_0-2_ケ__ブル付コネクタ
  6
CONTINUOUS
 62
    7
 10
219.06908314052859
 20
268.41996939999996
 11
199.95474593020222
 21
268.41996939999996
  0
LINE
  8
_0-2_ケ__ブル付コネクタ
  6
CONTINUOUS
 62
    7
 10
219.06908314052859
 20
274.41996939999996
 11
199.95474593020211
 21
274.41996939999996
  0
TEXT
  8
_0-0_
 62
    7
 10
303.9771318817335
 20
27.084408634822466
 40
3
 41
1
 50
0
  1
１
  0
TEXT
  8
_1-f_文字
 62
    7
 10
303.52179516333388
 20
116.02463810705451
 40
3
 41
1
 50
0
  1
　　長さ別の許容差を下記に示す。
  0
TEXT
  8
_0-1_コンバ__タ
 62
    7
 10
209.95222929936307
 20
258.92000039999994
 40
3
 41
1
 50
0
  1
1000,-0+70
  0
TEXT
  8
_0-1_コンバ__タ
 62
    7
 10
232.39408624052862
 20
226.91999999999996
 40
3
 41
1
 50
0
  1
27.5±0.27
  0
TEXT
  8
_0-0_
 62
    7
 10
72.038172481057245
 20
166.91999999999996
 40
3
 41
1
 50
0
  1
10/30/70/130m
  0
TEXT
  8
_0-1_コンバ__タ
 62
    7
 10
147.73661827044242
 20
226.91999999999996
 40
3
 41
1
 50
0
  1
50±0.38
  0
TEXT
  8
_0-1_コンバ__タ
 62
    7
 10
204.2890862405286
 20
159.5449999999999
 40
3
 41
1
 50
90
  1
70±0.38
  0
LINE
  8
_1-f_文字
  6
CONTINUOUS
 62
    7
 10
354.76908624052862
 20
81.419999999999959
 11
354.76908624052862
 21
41.419999999999959
  0
LINE
  8
_1-f_文字
  6
CONTINUOUS
 62
    7
 10
344.76908624052862
 20
81.419999999999959
 11
344.76908624052862
 21
41.419999999999959
  0
LINE
  8
_1-f_文字
  6
CONTINUOUS
 62
    7
 10
319.76908624052862
 20
41.419999999999959
 11
319.76908624052862
 21
81.419999999999959
  0
LINE
  8
_1-f_文字
  6
CONTINUOUS
 62
    7
 10
294.76908624052862
 20
41.419999999999959
 11
294.76908624052862
 21
81.419999999999959
  0
LINE
  8
_1-f_文字
  6
CONTINUOUS
 62
    7
 10
284.76908624052862
 20
61.419999999999959
 11
399.76908624052862
 21
61.419999999999959
  0
LINE
  8
_1-f_文字
  6
CONTINUOUS
 62
    7
 10
284.76908624052862
 20
51.419999999999959
 11
399.76908624052862
 21
51.419999999999959
  0
LINE
  8
_1-f_文字
  6
CONTINUOUS
 62
    7
 10
284.76908624052862
 20
46.419999999999959
 11
399.76908624052862
 21
46.419999999999959
  0
LINE
  8
_1-f_文字
  6
CONTINUOUS
 62
    7
 10
284.76908624052862
 20
56.419999999999959
 11
399.76908624052862
 21
56.419999999999959
  0
LINE
  8
_1-f_文字
  6
CONTINUOUS
 62
    7
 10
284.76908624052862
 20
66.419999999999959
 11
399.76908624052862
 21
66.419999999999959
  0
LINE
  8
_1-f_文字
  6
CONTINUOUS
 62
    7
 10
284.76908624052862
 20
71.419999999999959
 11
399.76908624052862
 21
71.419999999999959
  0
LINE
  8
_1-f_文字
  6
CONTINUOUS
 62
    7
 10
284.76908624052862
 20
76.419999999999959
 11
399.76908624052862
 21
76.419999999999959
  0
LINE
  8
_1-f_文字
  6
CONTINUOUS
 62
    7
 10
284.76908624052862
 20
81.419999999999959
 11
399.76908624052862
 21
81.419999999999959
  0
LINE
  8
_1-f_文字
  6
CONTINUOUS
 62
    7
 10
284.76908624052862
 20
41.419999999999959
 11
399.76908624052862
 21
41.419999999999959
  0
LINE
  8
_1-f_文字
  6
CONTINUOUS
 62
    7
 10
284.76908624052862
 20
81.419999999999959
 11
284.76908624052862
 21
41.419999999999959
  0
TEXT
  8
_1-f_文字
 62
    7
 10
285.76908624052862
 20
82.419999999999959
 40
3
 41
1
 50
0
  1
【主要諸元】
  0
TEXT
  8
_0-0_
 62
    7
 10
376.01908624052862
 20
47.669999999999959
 40
2.7000000000000002
 41
1
 50
0
  1
ｱｸﾘﾙ／塩化ﾋﾞﾆﾙ
  0
TEXT
  8
_1-f_文字
 62
    7
 10
349.14408624052862
 20
47.669999999999959
 40
2.7000000000000002
 41
1
 50
0
  1
1
  0
TEXT
  8
_1-f_文字
 62
    7
 10
347.26908624052862
 20
42.669999999999959
 40
2.7000000000000002
 41
1
 50
0
  1
数量
  0
TEXT
  8
_1-f_文字
 62
    7
 10
358.51908624052862
 20
42.669999999999959
 40
2.7000000000000002
 41
1
 50
0
  1
メーカ
  0
TEXT
  8
_1-f_文字
 62
    7
 10
356.01908624052862
 20
47.669999999999959
 40
2.7000000000000002
 41
1
 50
0
  1
ＧＥＯＴＳ
  0
TEXT
  8
_1-f_文字
 62
    7
 10
327.89408624052862
 20
47.669999999999959
 40
2.7000000000000002
 41
1
 50
0
  1
GSC-01A
  0
TEXT
  8
_1-f_文字
 62
    7
 10
329.76908624052862
 20
42.669999999999959
 40
2.7000000000000002
 41
1
 50
0
  1
型式
  0
TEXT
  8
_1-f_文字
 62
    7
 10
304.76908624052862
 20
42.669999999999959
 40
2.7000000000000002
 41
1
 50
0
  1
品名
  0
TEXT
  8
_1-f_文字
 62
    7
 10
299.76908624052862
 20
47.669999999999959
 40
2.7000000000000002
 41
1
 50
0
  1
圧力センサ部
  0
TEXT
  8
_1-f_文字
 62
    7
 10
287.26908624052862
 20
42.669999999999959
 40
2.7000000000000002
 41
1
 50
0
  1
品番
  0
TEXT
  8
_1-f_文字
 62
    7
 10
289.14408624052862
 20
47.669999999999959
 40
2.7000000000000002
 41
1
 50
0
  1
1
  0
TEXT
  8
_1-f_文字
 62
    7
 10
289.14408624052862
 20
52.669999999999959
 40
2.7000000000000002
 41
1
 50
0
  1
2
  0
TEXT
  8
_1-f_文字
 62
    7
 10
289.14408624052862
 20
57.669999999999959
 40
2.7000000000000002
 41
1
 50
0
  1
3
  0
TEXT
  8
_1-f_文字
 62
    7
 10
289.14408624052862
 20
62.669999999999959
 40
2.7000000000000002
 41
1
 50
0
  1
4
  0
TEXT
  8
_1-f_文字
 62
    7
 10
289.14408624052862
 20
67.669999999999959
 40
2.7000000000000002
 41
1
 50
0
  1
5
  0
TEXT
  8
_1-f_文字
 62
    7
 10
289.14408624052862
 20
72.669999999999959
 40
2.7000000000000002
 41
1
 50
0
  1
6
  0
TEXT
  8
_1-f_文字
 62
    7
 10
289.14408624052862
 20
77.669999999999959
 40
2.7000000000000002
 41
1
 50
0
  1
7
  0
TEXT
  8
_1-f_文字
 62
    7
 10
382.06908624052863
 20
42.669999999999959
 40
2.7000000000000002
 41
1
 50
0
  1
備考
  0
CIRCLE
  8
_0-1_コンバ__タ
  6
CONTINUOUS
 62
    7
 10
94.96811415068612
 20
61.843120461023844
 40
4
  0
LINE
  8
_0-1_コンバ__タ
  6
CONTINUOUS
 62
    7
 10
108.21892390673302
 20
73.670410784112562
 11
98.042764239600046
 21
64.401738609701283
  0
TEXT
  8
_0-1_コンバ__タ
 62
    7
 10
93.46811415068612
 20
60.343120461023844
 40
3
 41
1
 50
0
  1
３
  0
CIRCLE
  8
_0-1_コンバ__タ
  6
CONTINUOUS
 62
    7
 10
194.76908624052862
 20
66.419999999999987
 40
4
  0
LINE
  8
_0-1_コンバ__タ
  6
CONTINUOUS
 62
    7
 10
192.08543294465213
 20
69.386143116495063
 11
175.76908624052862
 21
87.419999999999973
  0
TEXT
  8
_0-1_コンバ__タ
 62
    7
 10
193.26908624052862
 20
64.919999999999987
 40
3
 41
1
 50
0
  1
４
  0
TEXT
  8
_0-1_コンバ__タ
 62
    7
 10
203.26908624052862
 20
119.91999999999999
 40
3
 41
1
 50
0
  1
２
  0
TEXT
  8
_0-1_コンバ__タ
 62
    7
 10
188.26908624052862
 20
234.91999999999996
 40
3
 41
1
 50
0
  1
５
  0
TEXT
  8
_1-f_文字
 62
    7
 10
303.51908624052862
 20
52.669999999999959
 40
2.7000000000000002
 41
1
 50
0
  1
変換部
  0
TEXT
  8
_1-f_文字
 62
    7
 10
327.89408624052862
 20
52.669999999999959
 40
2.7000000000000002
 41
1
 50
0
  1
GSC-01A
  0
TEXT
  8
_1-f_文字
 62
    7
 10
349.14408624052862
 20
52.669999999999959
 40
2.7000000000000002
 41
1
 50
0
  1
1
  0
TEXT
  8
_1-f_文字
 62
    7
 10
356.01908624052862
 20
52.669999999999959
 40
2.7000000000000002
 41
1
 50
0
  1
ＧＥＯＴＳ
  0
TEXT
  8
_0-0_
 62
    7
 10
377.89408624052862
 20
52.669999999999959
 40
2.7000000000000002
 41
1
 50
0
  1
ABS ﾗｲﾄｸﾞﾚｰ
  0
TEXT
  8
_1-f_文字
 62
    7
 10
357.36908624052865
 20
57.669999999999959
 40
2.7000000000000002
 41
1
 50
0
  1
富士電線
  0
TEXT
  8
_1-f_文字
 62
    7
 10
323.84408624052861
 20
57.669999999999959
 40
2.7000000000000002
 41
1
 50
0
  1
MVVS0.3mm×4C
  0
TEXT
  8
_1-f_文字
 62
    7
 10
298.4190862405286
 20
57.669999999999959
 40
2.7000000000000002
 41
1
 50
0
  1
センサケーブル
  0
TEXT
  8
_1-f_文字
 62
    7
 10
349.14408624052862
 20
57.669999999999959
 40
2.7000000000000002
 41
1
 50
0
  1
1
  0
TEXT
  8
_0-0_
 62
    7
 10
380.39408624052862
 20
62.669999999999959
 40
2.7000000000000002
 41
1
 50
0
  1
PBT樹脂
  0
TEXT
  8
_1-f_文字
 62
    7
 10
349.14408624052862
 20
62.849999999999966
 40
2.7000000000000002
 41
1
 50
0
  1
1
  0
TEXT
  8
_1-f_文字
 62
    7
 10
357.26908624052862
 20
62.669999999999959
 40
2.7000000000000002
 41
1
 50
0
  1
オムロン
  0
TEXT
  8
_1-f_文字
 62
    7
 10
326.64408624052862
 20
62.669999999999959
 40
2.7000000000000002
 41
1
 50
0
  1
XS5G-D418
  0
TEXT
  8
_1-f_文字
 62
    7
 10
298.51908624052862
 20
62.669999999999959
 40
2.7000000000000002
 41
1
 50
0
  1
センサコネクタ
  0
TEXT
  8
_1-f_文字
 62
    7
 10
349.14408624052862
 20
67.849999999999966
 40
2.7000000000000002
 41
1
 50
0
  1
1
  0
TEXT
  8
_1-f_文字
 62
    7
 10
322.89408624052862
 20
67.669999999999959
 40
2.7000000000000002
 41
1
 50
0
  1
XS5F-D421-C80-F
  0
TEXT
  8
_1-f_文字
 62
    7
 10
299.76908624052862
 20
67.669999999999959
 40
2.7000000000000002
 41
1
 50
0
  1
出力ケーブル
  0
TEXT
  8
_1-f_文字
 62
    7
 10
357.26908624052862
 20
67.669999999999959
 40
2.7000000000000002
 41
1
 50
0
  1
オムロン
  0
TEXT
  8
_0-0_
 62
    7
 10
380.39408624052862
 20
67.669999999999959
 40
2.7000000000000002
 41
1
 50
0
  1
ﾎﾟﾘｳﾚﾀﾝ
  0
LINE
  8
_0-1_コンバ__タ
  6
CONTINUOUS
 62
    7
 10
108.21892390673302
 20
73.670410784112562
 11
106.59943479070914
 21
71.145088031852922
  0
LINE
  8
_0-1_コンバ__タ
  6
CONTINUOUS
 62
    7
 10
108.21892390673302
 20
73.670410784112562
 11
105.55374381497413
 21
72.293161685912821
  0
TEXT
  8
_0-0_
 62
    7
 10
380.06908624052858
 20
57.669999999999959
 40
2.7000000000000002
 41
1
 50
0
  1
塩化ﾋﾞﾆﾙ
  0
LINE
  8
_0-1_コンバ__タ
  6
CONTINUOUS
 62
    7
 10
175.76908624052862
 20
87.419999999999973
 11
178.2890145077848
 21
85.792129757049608
  0
LINE
  8
_0-1_コンバ__タ
  6
CONTINUOUS
 62
    7
 10
175.76908624052862
 20
87.419999999999973
 11
177.13747301421179
 21
84.750258881912117
  0
TEXT
  8
_1-f_文字
 62
    7
 10
299.76908624052862
 20
131.41999999999996
 40
3
 41
1
 50
0
  1
(１）品名②ケース加工公差は、ＤＩＮ１６９０１－８２による。
  0
TEXT
  8
_1-f_文字
 62
    7
 10
299.76908624052862
 20
121.41999999999997
 40
3
 41
1
 50
0
  1
(２）ケーブル加工公差は、製作者側の社内規定による。
  0
LINE
  8
_0-0_
  6
CONTINUOUS
 62
    7
 10
56.038172481057245
 20
69.669999999999959
 11
56.038172481057245
 21
76.670000000000016
  0
LINE
  8
_0-0_
  6
CONTINUOUS
 62
    7
 10
56.038172481057245
 20
69.669999999999959
 11
53.038172481057245
 21
66.669999999999959
  0
LINE
  8
_0-0_
  6
CONTINUOUS
 62
    7
 10
53.038172481057245
 20
66.669999999999959
 11
49.538172481057245
 21
66.669999999999959
  0
LINE
  8
_0-0_
  6
CONTINUOUS
 62
    7
 10
43.038172481057245
 20
69.669999999999959
 11
46.038172481057245
 21
66.669999999999959
  0
LINE
  8
_0-0_
  6
CONTINUOUS
 62
    7
 10
46.038172481057245
 20
66.669999999999959
 11
49.538172481057245
 21
66.669999999999959
  0
LINE
  8
_0-0_
  6
CONTINUOUS
 62
    7
 10
43.038172481057245
 20
69.669999999999959
 11
43.038172481057245
 21
76.670000000000016
  0
LINE
  8
_0-0_
  6
CONTINUOUS
 62
    7
 10
56.038172481057245
 20
76.670000000000016
 11
43.038172481057245
 21
76.670000000000016
  0
LINE
  8
_0-0_
  6
CONTINUOUS
 62
    3
 10
56.038172481057245
 20
76.670000000000016
 11
56.038172481057245
 21
117.66500000000002
  0
LINE
  8
_0-0_
  6
CONTINUOUS
 62
    3
 10
43.038172481057245
 20
76.670000000000016
 11
43.038172481057245
 21
117.66500000000002
  0
POINT
  8
_0-0_
 62
    6
 10
43.038172481057245
 20
56.419999999999973
  0
POINT
  8
_0-0_
 62
    6
 10
56.038172481057245
 20
56.419999999999973
  0
LINE
  8
_0-0_
  6
CONTINUOUS
 62
    4
 10
43.038172481057245
 20
56.419999999999973
 11
43.038172481057245
 21
66.669999999999959
  0
LINE
  8
_0-0_
  6
CONTINUOUS
 62
    4
 10
56.038172481057245
 20
56.419999999999973
 11
56.038172481057245
 21
66.669999999999959
  0
LINE
  8
_0-0_
  6
CONTINUOUS
 62
    4
 10
64.769086240528623
 20
66.669999999999959
 11
64.769086240528623
 21
128.66499999999996
  0
POINT
  8
_0-0_
 62
    6
 10
64.769086240528623
 20
66.669999999999959
  0
LINE
  8
_0-0_
  6
CONTINUOUS
 62
    4
 10
64.769086240528623
 20
66.669999999999959
 11
56.038172481057245
 21
66.669999999999959
  0
LINE
  8
_0-0_
  6
CONTINUOUS
 62
    4
 10
34.789086240528633
 20
166.4199999999999
 11
34.789086240528633
 21
66.419999999999973
  0
POINT
  8
_0-0_
 62
    6
 10
34.769086240528623
 20
66.419999999999973
  0
LINE
  8
_0-0_
  6
CONTINUOUS
 62
    4
 10
34.769086240528623
 20
66.439999999999969
 11
44.769086240528623
 21
66.439999999999969
  0
LINE
  8
_0-0_
  6
CONTINUOUS
 62
    4
 10
43.038172481057245
 20
56.419999999999973
 11
72.606992170067741
 21
56.419999999999973
  0
TEXT
  8
_0-0_
 62
    7
 10
58.607012454866322
 20
56.919999999999973
 40
3
 41
1
 50
0
  1
13±0.6
  0
TEXT
  8
_0-0_
 62
    7
 10
64.269086240528623
 20
91.667499999999961
 40
3
 41
1
 50
90
  1
62±0.3
  0
TEXT
  8
_0-1_コンバ__タ
 62
    7
 10
219.11908624052862
 20
251.41999999999996
 40
3
 41
1
 50
0
  1
ｺｰﾄﾞ色
  0
TEXT
  8
_0-1_コンバ__タ
 62
    7
 10
231.61908624052862
 20
251.41999999999996
 40
3
 41
1
 50
0
  1
茶：＋１２Ｖ
  0
TEXT
  8
_0-1_コンバ__タ
 62
    7
 10
231.61908624052862
 20
246.41999999999996
 40
3
 41
1
 50
0
  1
黒：ＧＮＤ
  0
LINE
  8
_0-1_コンバ__タ
  6
CONTINUOUS
 62
    3
 10
217.26908624052862
 20
236.41999999999996
 11
217.26908624052862
 21
256.41999999999996
  0
LINE
  8
_0-1_コンバ__タ
  6
CONTINUOUS
 62
    3
 10
217.26908624052862
 20
256.41999999999996
 11
247.26908624052862
 21
256.41999999999996
  0
TEXT
  8
_0-1_コンバ__タ
 62
    7
 10
231.61908624052862
 20
241.41999999999996
 40
3
 41
1
 50
0
  1
白：Ｓ１＋（４８５＋）
  0
TEXT
  8
_0-1_コンバ__タ
 62
    7
 10
231.61908624052862
 20
236.41999999999996
 40
3
 41
1
 50
0
  1
青：Ｓ２＋（４８５－）
  0
LINE
  8
_0-1_コンバ__タ
  6
CONTINUOUS
 62
    3
 10
269.76908624052862
 20
236.41999999999996
 11
217.26908624052862
 21
236.41999999999996
  0
LINE
  8
_0-1_コンバ__タ
  6
CONTINUOUS
 62
    3
 10
252.26908624052862
 20
256.41999999999996
 11
269.76908624052862
 21
256.41999999999996
  0
LINE
  8
_0-1_コンバ__タ
  6
CONTINUOUS
 62
    3
 10
269.76908624052862
 20
236.41999999999996
 11
269.76908624052862
 21
256.41999999999996
  0
LINE
  8
_0-1_コンバ__タ
  6
CONTINUOUS
 62
    3
 10
247.26908624052862
 20
256.41999999999996
 11
258.31037041319166
 21
267.38841575074184
  0
LINE
  8
_0-1_コンバ__タ
  6
CONTINUOUS
 62
    3
 10
258.31037041319166
 20
267.38841575074184
 11
252.26908624052862
 21
256.41999999999996
  0
ENDSEC
  0
EOF
