  0
SECTION
  2
HEADER
  9
$ACADVER
  1
AC1015
  9
$ACADMAINTVER
 70
     6
  9
$DWGCODEPAGE
  3
DOS932
  9
$INSBASE
 10
0.0
 20
0.0
 30
0.0
  9
$EXTMIN
 10
0.0
 20
0.0
 30
0.0
  9
$EXTMAX
 10
1260.0
 20
891.0
 30
0.0
  9
$LIMMIN
 10
0.0
 20
0.0
  9
$LIMMAX
 10
1260.0
 20
891.0
  9
$ORTHOMODE
 70
     0
  9
$REGENMODE
 70
     1
  9
$FILLMODE
 70
     1
  9
$QTEXTMODE
 70
     0
  9
$MIRRTEXT
 70
     1
  9
$LTSCALE
 40
0.75
  9
$ATTMODE
 70
     1
  9
$TEXTSIZE
 40
10.5
  9
$TRACEWID
 40
0.05
  9
$TEXTSTYLE
  7
Standard
  9
$CLAYER
  8
0
  9
$CELTYPE
  6
Continuous
  9
$CECOLOR
 62
   256
  9
$CELTSCALE
 40
1.0
  9
$DISPSILH
 70
     0
  9
$DIMSCALE
 40
3.0
  9
$DIMASZ
 40
2.0
  9
$DIMEXO
 40
2.0
  9
$DIMDLI
 40
10.0
  9
$DIMRND
 40
0.0
  9
$DIMDLE
 40
0.0
  9
$DIMEXE
 40
2.0
  9
$DIMTP
 40
0.0
  9
$DIMTM
 40
0.0
  9
$DIMTXT
 40
3.5
  9
$DIMCEN
 40
0.09
  9
$DIMTSZ
 40
0.0
  9
$DIMTOL
 70
     0
  9
$DIMLIM
 70
     0
  9
$DIMTIH
 70
     0
  9
$DIMTOH
 70
     0
  9
$DIMSE1
 70
     0
  9
$DIMSE2
 70
     0
  9
$DIMTAD
 70
     3
  9
$DIMZIN
 70
     0
  9
$DIMBLK
  1

  9
$DIMASO
 70
     1
  9
$DIMSHO
 70
     1
  9
$DIMPOST
  1

  9
$DIMAPOST
  1

  9
$DIMALT
 70
     0
  9
$DIMALTD
 70
     2
  9
$DIMALTF
 40
25.4
  9
$DIMLFAC
 40
1.0
  9
$DIMTOFL
 70
     1
  9
$DIMTVP
 40
0.7
  9
$DIMTIX
 70
     0
  9
$DIMSOXD
 70
     0
  9
$DIMSAH
 70
     0
  9
$DIMBLK1
  1

  9
$DIMBLK2
  1

  9
$DIMSTYLE
  2
Standard
  9
$DIMCLRD
 70
     0
  9
$DIMCLRE
 70
     0
  9
$DIMCLRT
 70
     0
  9
$DIMTFAC
 40
0.5
  9
$DIMGAP
 40
0.5
  9
$DIMJUST
 70
     0
  9
$DIMSD1
 70
     0
  9
$DIMSD2
 70
     0
  9
$DIMTOLJ
 70
     1
  9
$DIMTZIN
 70
     0
  9
$DIMALTZ
 70
     0
  9
$DIMALTTZ
 70
     0
  9
$DIMUPT
 70
     0
  9
$DIMDEC
 70
     2
  9
$DIMTDEC
 70
     4
  9
$DIMALTU
 70
     2
  9
$DIMALTTD
 70
     2
  9
$DIMTXSTY
  7
Standard
  9
$DIMAUNIT
 70
     0
  9
$DIMADEC
 70
     0
  9
$DIMALTRND
 40
0.0
  9
$DIMAZIN
 70
     0
  9
$DIMDSEP
 70
     0
  9
$DIMATFIT
 70
     3
  9
$DIMFRAC
 70
     0
  9
$DIMLDRBLK
  1

  9
$DIMLUNIT
 70
     2
  9
$DIMLWD
 70
     0
  9
$DIMLWE
 70
     0
  9
$DIMTMOVE
 70
     0
  9
$LUNITS
 70
     2
  9
$LUPREC
 70
     4
  9
$SKETCHINC
 40
0.1
  9
$FILLETRAD
 40
0.0
  9
$AUNITS
 70
     0
  9
$AUPREC
 70
     0
  9
$MENU
  1
acad
  9
$ELEVATION
 40
0.0
  9
$PELEVATION
 40
0.0
  9
$THICKNESS
 40
0.0
  9
$LIMCHECK
 70
     0
  9
$CHAMFERA
 40
0.0
  9
$CHAMFERB
 40
0.0
  9
$CHAMFERC
 40
0.0
  9
$CHAMFERD
 40
0.0
  9
$SKPOLY
 70
     0
  9
$TDCREATE
 40
2457182.604652778
  9
$TDUCREATE
 40
0.000000000
  9
$TDUPDATE
 40
2457182.604652778
  9
$TDUUPDATE
 40
0.000000000
  9
$TDINDWG
 40
0.0000000000
  9
$TDUSRTIMER
 40
0.0000000000
  9
$USRTIMER
 70
     1
  9
$ANGBASE
 50
0.0
  9
$ANGDIR
 70
     0
  9
$PDMODE
 70
     0
  9
$PDSIZE
 40
0.0
  9
$PLINEWID
 40
0.0
  9
$SPLFRAME
 70
     0
  9
$SPLINETYPE
 70
     6
  9
$SPLINESEGS
 70
     8
  9
$HANDSEED
  5
541
  9
$SURFTAB1
 70
     6
  9
$SURFTAB2
 70
     6
  9
$SURFTYPE
 70
     6
  9
$SURFU
 70
     6
  9
$SURFV
 70
     6
  9
$UCSBASE
  2

  9
$UCSNAME
  2

  9
$UCSORG
 10
0.0
 20
0.0
 30
0.0
  9
$UCSXDIR
 10
1.0
 20
0.0
 30
0.0
  9
$UCSYDIR
 10
0.0
 20
1.0
 30
0.0
  9
$UCSORTHOREF
  2

  9
$UCSORTHOVIEW
 70
     0
  9
$UCSORGTOP
 10
0.0
 20
0.0
 30
0.0
  9
$UCSORGBOTTOM
 10
0.0
 20
0.0
 30
0.0
  9
$UCSORGLEFT
 10
0.0
 20
0.0
 30
0.0
  9
$UCSORGRIGHT
 10
0.0
 20
0.0
 30
0.0
  9
$UCSORGFRONT
 10
0.0
 20
0.0
 30
0.0
  9
$UCSORGBACK
 10
0.0
 20
0.0
 30
0.0
  9
$PUCSBASE
  2

  9
$PUCSNAME
  2

  9
$PUCSORG
 10
0.0
 20
0.0
 30
0.0
  9
$PUCSXDIR
 10
1.0
 20
0.0
 30
0.0
  9
$PUCSYDIR
 10
0.0
 20
1.0
 30
0.0
  9
$PUCSORTHOREF
  2

  9
$PUCSORTHOVIEW
 70
     0
  9
$PUCSORGTOP
 10
0.0
 20
0.0
 30
0.0
  9
$PUCSORGBOTTOM
 10
0.0
 20
0.0
 30
0.0
  9
$PUCSORGLEFT
 10
0.0
 20
0.0
 30
0.0
  9
$PUCSORGRIGHT
 10
0.0
 20
0.0
 30
0.0
  9
$PUCSORGFRONT
 10
0.0
 20
0.0
 30
0.0
  9
$PUCSORGBACK
 10
0.0
 20
0.0
 30
0.0
  9
$USERI1
 70
     0
  9
$USERI2
 70
     0
  9
$USERI3
 70
     0
  9
$USERI4
 70
     0
  9
$USERI5
 70
     0
  9
$USERR1
 40
0.0
  9
$USERR2
 40
0.0
  9
$USERR3
 40
0.0
  9
$USERR4
 40
0.0
  9
$USERR5
 40
0.0
  9
$WORLDVIEW
 70
     1
  9
$SHADEDGE
 70
     3
  9
$SHADEDIF
 70
    70
  9
$TILEMODE
 70
     1
  9
$MAXACTVP
 70
    16
  9
$PINSBASE
 10
0.0
 20
0.0
 30
0.0
  9
$PLIMCHECK
 70
     0
  9
$PEXTMIN
 10
0.0
 20
0.0
 30
0.0
  9
$PEXTMAX
 10
420.0
 20
297.0
 30
0.0
  9
$PLIMMIN
 10
0.0
 20
0.0
  9
$PLIMMAX
 10
420.0
 20
297.0
  9
$UNITMODE
 70
     0
  9
$VISRETAIN
 70
     0
  9
$PLINEGEN
 70
     1
  9
$PSLTSCALE
 70
     0
  9
$TREEDEPTH
 70
  3020
  9
$CMLSTYLE
  2
Standard
  9
$CMLJUST
 70
     0
  9
$CMLSCALE
 40
1.0
  9
$PROXYGRAPHICS
 70
     0
  9
$MEASUREMENT
 70
     0
  9
$CELWEIGHT
370
     0
  9
$ENDCAPS
280
     0
  9
$JOINSTYLE
280
     0
  9
$LWDISPLAY
290
     0
  9
$INSUNITS
 70
     0
  9
$HYPERLINKBASE
  1

  9
$STYLESHEET
  1

  9
$XEDIT
290
     1
  9
$CEPSNTYPE
380
     0
  9
$PSTYLEMODE
290
     1
  9
$FINGERPRINTGUID
  2

  9
$VERSIONGUID
  2

  9
$EXTNAMES
290
     1
  9
$PSVPSCALE
 40
0.0
  0
ENDSEC
  0
SECTION
  2
CLASSES
  0
CLASS
  1
LWPOLYLINE
  2
AcDbPolyline
  3
AutoCAD 2000
 90
    32768
280
     0
281
     1
  0
CLASS
  1
IMAGE
  2
AcDbRasterImage
  3
ISM
 90
    32895
280
     0
281
     1
  0
CLASS
  1
OLE2FRAME
  2
AcDbOle2Frame
  3
AutoCAD 2000
 90
    32768
280
     0
281
     1
  0
CLASS
  1
HATCH
  2
AcDbHatch
  3
AutoCAD 2000
 90
    32768
280
     0
281
     1
  0
CLASS
  1
DICTIONARYVAR
  2
AcDbDictionaryVar
  3
AutoCAD 2000
 90
    32768
280
     0
281
     0
  0
CLASS
  1
RASTERVARIABLES
  2
AcDbRasterVariables
  3
ISM
 90
    32768
280
     0
281
     0
  0
CLASS
  1
IMAGEDEF
  2
AcDbRasterImageDef
  3
ISM
 90
    32768
280
     0
281
     0
  0
CLASS
  1
IMAGEDEF_REACTOR
  2
AcDbRasterImageDefReactor
  3
ISM
 90
    32769
280
     0
281
     0
  0
CLASS
  1
IDBUFFER
  2
AcDbIdBuffer
  3
AutoCAD 2000
 90
    32768
280
     0
281
     0
  0
CLASS
  1
SPATIAL_FILTER
  2
AcDbSpatialFilter
  3
AutoCAD 2000
 90
    32768
280
     0
281
     0
  0
CLASS
  1
XRECORD
  2
AcDbXrecord
  3
AutoCAD 2000
 90
    32768
280
     0
281
     0
  0
CLASS
  1
SORTENTSTABLE
  2
AcDbSortentsTable
  3
AutoCAD 2000
 90
    32768
280
     0
281
     0
  0
CLASS
  1
LAYER_INDEX
  2
AcDbLayerIndex
  3
AutoCAD 2000
 90
    32768
280
     0
281
     0
  0
CLASS
  1
SPATIAL_INDEX
  2
AcDbSpatialIndex
  3
AutoCAD 2000
 90
    32768
280
     0
281
     0
  0
CLASS
  1
OBJECT_PTR
  2
CAseDLPNTableRecord
  3
"ASE-LPNTableRecord"
 90
    32769
280
     0
281
     0
  0
CLASS
  1
LAYOUT
  2
AcDbLayout
  3
AutoCAD 2000
 90
        0
280
     0
281
     0
  0
CLASS
  1
PLOTSETTINGS
  2
AcDbPlotSettings
  3
AutoCAD 2000
 90
    32768
280
     0
281
     0
  0
CLASS
  1
ACDBDICTIONARYWDFLT
  2
AcDbDictionaryWithDefault
  3
AutoCAD 2000
 90
        0
280
     0
281
     0
  0
CLASS
  1
ACDBPLACEHOLDER
  2
AcDbPlaceHolder
  3
AutoCAD 2000
 90
        0
280
     0
281
     0
  0
CLASS
  1
VBA_PROJECT
  2
AcDbVbaProject
  3
acadvba
 90
    32768
280
     0
281
     0
  0
CLASS
  1
WIPEOUT
  2
AcDbWipeout
  3
WipeOut|AutoCAD Express Tool|expresstools@autodesk.com
 90
    32895
280
     0
281
     1
  0
CLASS
  1
WIPEOUTVARIABLES
  2
AcDbWipeoutVariables
  3
WipeOut|AutoCAD Express Tool|expresstools@autodesk.com
 90
        0
280
     0
281
     0
  0
CLASS
  1
RTEXT
  2
RText
  3
RText|AutoCAD Express Tool|expresstools@autodesk.com
 90
    32768
280
     0
281
     1
  0
CLASS
  1
ARCALIGNEDTEXT
  2
AcDbArcAlignedText
  3
ATEXT|AutoCAD Express Tool|expresstools@autodesk.com
 90
    32768
280
     0
281
     1
  0
ENDSEC
  0
SECTION
  2
TABLES
  0
TABLE
  2
VPORT
  5
7
100
AcDbSymbolTable
 70
     1
  0
VPORT
  5
15
100
AcDbSymbolTableRecord
100
AcDbViewportTableRecord
  2
*ACTIVE
 70
     0
 10
0.0
 20
0.0
 11
1.0
 21
1.0
 12
6.591288
 22
4.579184
 13
0.0
 23
0.0
 14
1.0
 24
1.0
 15
0.0
 25
0.0
 16
0.0
 26
0.0
 36
1.0
 17
0.0
 27
0.0
 37
0.0
 40
9.158369
 41
0.688564
 42
50.0
 43
0.0
 44
0.0
 50
0.0
 51
0.0
 71
     0
 72
   100
 73
     1
 74
     1
 75
     0
 76
     0
 77
     0
 78
     0
281
     0
 65
     0
110
0.0
120
0.0
130
0.0
111
1.0
121
0.0
131
0.0
112
0.0
122
1.0
132
0.0
345
0
346
0
 79
     0
146
0.0
  0
ENDTAB
  0
TABLE
  2
LTYPE
  5
4
100
AcDbSymbolTable
 70
     9
  0
LTYPE
  5
11
100
AcDbSymbolTableRecord
100
AcDbLinetypeTableRecord
  2
ByBlock
 70
    64
  3

 72
    65
 73
     0
 40
0.0
  0
LTYPE
  5
12
100
AcDbSymbolTableRecord
100
AcDbLinetypeTableRecord
  2
ByLayer
 70
    64
  3

 72
    65
 73
     0
 40
0.0
  0
LTYPE
  5
13
100
AcDbSymbolTableRecord
100
AcDbLinetypeTableRecord
  2
Continuous
 70
    64
  3
Solid line
 72
    65
 73
     0
 40
0.0
  0
LTYPE
  5
25
100
AcDbSymbolTableRecord
100
AcDbLinetypeTableRecord
  2
HIDDEN
 70
    64
  3
- - - - - - - - 
 72
    65
 73
     2
 40
12.6
 49
8.4
 74
     0
 49
-4.2
 74
     0
  0
LTYPE
  5
26
100
AcDbSymbolTableRecord
100
AcDbLinetypeTableRecord
  2
DOT
 70
    64
  3
･ ･ ･ ･ ･ ･ ･ ･ 
 72
    65
 73
     2
 40
8.0
 49
6.0
 74
     0
 49
-2.0
 74
     0
  0
LTYPE
  5
27
100
AcDbSymbolTableRecord
100
AcDbLinetypeTableRecord
  2
CENTER
 70
    64
  3
- ･ - ･ - ･ - ･ 
 72
    65
 73
     4
 40
50.5
 49
30.0
 74
     0
 49
-9.0
 74
     0
 49
2.5
 74
     0
 49
-9.0
 74
     0
  0
LTYPE
  5
28
100
AcDbSymbolTableRecord
100
AcDbLinetypeTableRecord
  2
PHANTOM
 70
    64
  3
- ･･ - ･･ - ･･ - ･･ 
 72
    65
 73
     6
 40
58.0
 49
30.0
 74
     0
 49
-9.0
 74
     0
 49
2.5
 74
     0
 49
-5.0
 74
     0
 49
2.5
 74
     0
 49
-9.0
 74
     0
  0
LTYPE
  5
29
100
AcDbSymbolTableRecord
100
AcDbLinetypeTableRecord
  2
ACAD_ISO06W100
 70
    64
  3
____ ... ____ ... ____
 72
    65
 73
     8
 40
37.5
 49
24.0
 74
     0
 49
-3.0
 74
     0
 49
0.5
 74
     0
 49
-3.0
 74
     0
 49
0.5
 74
     0
 49
-3.0
 74
     0
 49
0.5
 74
     0
 49
-3.0
 74
     0
  0
LTYPE
  5
2A
100
AcDbSymbolTableRecord
100
AcDbLinetypeTableRecord
  2
ACAD_ISO14W100
 70
    64
  3
__ . . . __ . . . __ . . . 
 72
    65
 73
     8
 40
25.5
 49
12.0
 74
     0
 49
-3.0
 74
     0
 49
0.5
 74
     0
 49
-3.0
 74
     0
 49
0.5
 74
     0
 49
-3.0
 74
     0
 49
0.5
 74
     0
 49
-3.0
 74
     0
  0
ENDTAB
  0
TABLE
  2
LAYER
  5
2
100
AcDbSymbolTable
 70
    23
  0
LAYER
  5
14
100
AcDbSymbolTableRecord
100
AcDbLayerTableRecord
  2
0
 70
     0
 62
     7
  6
Continuous
290
     1
370
    -3
390
1D
  0
LAYER
  5
2B
100
AcDbSymbolTableRecord
100
AcDbLayerTableRecord
  2
1
 70
     0
 62
     5
  6
Continuous
290
     1
370
    -3
390
1D
  0
LAYER
  5
2C
100
AcDbSymbolTableRecord
100
AcDbLayerTableRecord
  2
2
 70
     0
 62
     6
  6
Continuous
290
     1
370
    -3
390
1D
  0
LAYER
  5
2D
100
AcDbSymbolTableRecord
100
AcDbLayerTableRecord
  2
3
 70
     0
 62
     3
  6
Continuous
290
     1
370
    -3
390
1D
  0
LAYER
  5
2E
100
AcDbSymbolTableRecord
100
AcDbLayerTableRecord
  2
4
 70
     0
 62
    30
  6
Continuous
290
     1
370
    -3
390
1D
  0
LAYER
  5
2F
100
AcDbSymbolTableRecord
100
AcDbLayerTableRecord
  2
5
 70
     0
 62
     4
  6
Continuous
290
     1
370
    -3
390
1D
  0
LAYER
  5
30
100
AcDbSymbolTableRecord
100
AcDbLayerTableRecord
  2
6
 70
     0
 62
     2
  6
Continuous
290
     1
370
    -3
390
1D
  0
LAYER
  5
31
100
AcDbSymbolTableRecord
100
AcDbLayerTableRecord
  2
7
 70
     0
 62
    34
  6
Continuous
290
     1
370
    -3
390
1D
  0
LAYER
  5
32
100
AcDbSymbolTableRecord
100
AcDbLayerTableRecord
  2
8
 70
     0
 62
    54
  6
Continuous
290
     1
370
    -3
390
1D
  0
LAYER
  5
33
100
AcDbSymbolTableRecord
100
AcDbLayerTableRecord
  2
9
 70
     0
 62
   135
  6
Continuous
290
     1
370
    -3
390
1D
  0
LAYER
  5
34
100
AcDbSymbolTableRecord
100
AcDbLayerTableRecord
  2
10
 70
     0
 62
     1
  6
Continuous
290
     1
370
    -3
390
1D
  0
LAYER
  5
35
100
AcDbSymbolTableRecord
100
AcDbLayerTableRecord
  2
11
 70
     0
 62
     7
  6
Continuous
290
     1
370
    -3
390
1D
  0
LAYER
  5
36
100
AcDbSymbolTableRecord
100
AcDbLayerTableRecord
  2
12
 70
     0
 62
     3
  6
Continuous
290
     1
370
    -3
390
1D
  0
LAYER
  5
37
100
AcDbSymbolTableRecord
100
AcDbLayerTableRecord
  2
13
 70
     0
 62
   214
  6
Continuous
290
     1
370
    -3
390
1D
  0
LAYER
  5
38
100
AcDbSymbolTableRecord
100
AcDbLayerTableRecord
  2
21
 70
     0
 62
     7
  6
Continuous
290
     1
370
    -3
390
1D
  0
LAYER
  5
39
100
AcDbSymbolTableRecord
100
AcDbLayerTableRecord
  2
22
 70
     0
 62
     3
  6
Continuous
290
     1
370
    -3
390
1D
  0
LAYER
  5
3A
100
AcDbSymbolTableRecord
100
AcDbLayerTableRecord
  2
31
 70
     0
 62
     7
  6
Continuous
290
     1
370
    -3
390
1D
  0
LAYER
  5
3B
100
AcDbSymbolTableRecord
100
AcDbLayerTableRecord
  2
32
 70
     0
 62
     3
  6
Continuous
290
     1
370
    -3
390
1D
  0
LAYER
  5
3C
100
AcDbSymbolTableRecord
100
AcDbLayerTableRecord
  2
1000
 70
     0
 62
     7
  6
Continuous
290
     1
370
    -3
390
1D
  0
LAYER
  5
3D
100
AcDbSymbolTableRecord
100
AcDbLayerTableRecord
  2
1010
 70
     0
 62
     7
  6
Continuous
290
     1
370
    -3
390
1D
  0
LAYER
  5
3E
100
AcDbSymbolTableRecord
100
AcDbLayerTableRecord
  2
1020
 70
     0
 62
     7
  6
Continuous
290
     1
370
    -3
390
1D
  0
LAYER
  5
3F
100
AcDbSymbolTableRecord
100
AcDbLayerTableRecord
  2
1030
 70
     0
 62
     7
  6
Continuous
290
     1
370
    -3
390
1D
  0
LAYER
  5
40
100
AcDbSymbolTableRecord
100
AcDbLayerTableRecord
  2
1031
 70
     0
 62
     7
  6
Continuous
290
     1
370
    -3
390
1D
  0
ENDTAB
  0
TABLE
  2
STYLE
  5
3
100
AcDbSymbolTable
 70
     2
  0
STYLE
  5
17
100
AcDbSymbolTableRecord
100
AcDbTextStyleTableRecord
  2
Standard
 70
     0
 40
0.0
 41
1.0
 50
0.0
 71
     0
 42
0.0
  3
txt
  4
bigfont
  0
STYLE
  5
24
100
AcDbSymbolTableRecord
100
AcDbTextStyleTableRecord
  2
T_STANDARD
 70
    68
 40
10.0
 41
1.0
 50
0.0
 71
     0
 42
10.0
  3
txt
  4
bigfont
  0
ENDTAB
  0
TABLE
  2
VIEW
  5
5
100
AcDbSymbolTable
 70
     0
  0
ENDTAB
  0
TABLE
  2
UCS
  5
6
100
AcDbSymbolTable
 70
     0
  0
ENDTAB
  0
TABLE
  2
APPID
  5
8
100
AcDbSymbolTable
 70
     1
  0
APPID
  5
16
100
AcDbSymbolTableRecord
100
AcDbRegAppTableRecord
  2
ACAD
 70
     0
  0
ENDTAB
  0
TABLE
  2
DIMSTYLE
  5
9
100
AcDbSymbolTable
 70
     1
100
AcDbDimStyleTable
 71
     0
  0
DIMSTYLE
105
18
100
AcDbSymbolTableRecord
100
AcDbDimStyleTableRecord
  2
Standard
 70
     0
  3

  4

 40
1.0
 41
0.18
 42
0.0625
 43
0.38
 44
0.18
 45
0.0
 46
0.0
 47
0.0
 48
0.0
 71
     0
 72
     0
 73
     1
 74
     1
 75
     0
 76
     0
 77
     0
 78
     0
 79
     0
140
0.18
141
0.09
142
0.0
143
25.4
144
1.0
145
0.0
146
1.0
147
0.09
148
0.0
170
     0
171
     2
172
     0
173
     0
174
     0
175
     0
176
     0
177
     0
178
     0
179
     0
271
     4
272
     4
273
     2
274
     2
275
     0
276
     0
277
     2
278
    46
279
     0
280
     0
281
     0
282
     0
283
     1
284
     0
285
     0
286
     0
288
     0
340
17
341
0
342
0
343
0
344
0
371
    -2
372
    -2
  0
ENDTAB
  0
TABLE
  2
BLOCK_RECORD
  5
1
100
AcDbSymbolTable
 70
    27
  0
BLOCK_RECORD
  5
A
100
AcDbSymbolTableRecord
100
AcDbBlockTableRecord
  2
*MODEL_SPACE
340
20
  0
BLOCK_RECORD
  5
B
100
AcDbSymbolTableRecord
100
AcDbBlockTableRecord
  2
*PAPER_SPACE
340
21
  0
BLOCK_RECORD
  5
41
100
AcDbSymbolTableRecord
100
AcDbBlockTableRecord
  2
*G0
340
0
102
{BLKREFS
331
44
102
}
  0
BLOCK_RECORD
  5
431
100
AcDbSymbolTableRecord
100
AcDbBlockTableRecord
  2
*G1
340
0
102
{BLKREFS
331
482
102
}
  0
BLOCK_RECORD
  5
483
100
AcDbSymbolTableRecord
100
AcDbBlockTableRecord
  2
*G2
340
0
102
{BLKREFS
331
498
102
}
  0
BLOCK_RECORD
  5
486
100
AcDbSymbolTableRecord
100
AcDbBlockTableRecord
  2
*G3
340
0
102
{BLKREFS
331
48C
102
}
  0
BLOCK_RECORD
  5
48D
100
AcDbSymbolTableRecord
100
AcDbBlockTableRecord
  2
*G4
340
0
102
{BLKREFS
331
493
102
}
  0
BLOCK_RECORD
  5
499
100
AcDbSymbolTableRecord
100
AcDbBlockTableRecord
  2
*G5
340
0
102
{BLKREFS
331
4AE
102
}
  0
BLOCK_RECORD
  5
49C
100
AcDbSymbolTableRecord
100
AcDbBlockTableRecord
  2
*G6
340
0
102
{BLKREFS
331
4A2
102
}
  0
BLOCK_RECORD
  5
4A3
100
AcDbSymbolTableRecord
100
AcDbBlockTableRecord
  2
*G7
340
0
102
{BLKREFS
331
4A9
102
}
  0
BLOCK_RECORD
  5
4AF
100
AcDbSymbolTableRecord
100
AcDbBlockTableRecord
  2
*G8
340
0
102
{BLKREFS
331
4C4
102
}
  0
BLOCK_RECORD
  5
4B4
100
AcDbSymbolTableRecord
100
AcDbBlockTableRecord
  2
*G9
340
0
102
{BLKREFS
331
4BA
102
}
  0
BLOCK_RECORD
  5
4BB
100
AcDbSymbolTableRecord
100
AcDbBlockTableRecord
  2
*G10
340
0
102
{BLKREFS
331
4C1
102
}
  0
BLOCK_RECORD
  5
4C5
100
AcDbSymbolTableRecord
100
AcDbBlockTableRecord
  2
*G11
340
0
102
{BLKREFS
331
4DC
102
}
  0
BLOCK_RECORD
  5
4CB
100
AcDbSymbolTableRecord
100
AcDbBlockTableRecord
  2
*G12
340
0
102
{BLKREFS
331
4D1
102
}
  0
BLOCK_RECORD
  5
4D3
100
AcDbSymbolTableRecord
100
AcDbBlockTableRecord
  2
*G13
340
0
102
{BLKREFS
331
4D9
102
}
  0
BLOCK_RECORD
  5
4DD
100
AcDbSymbolTableRecord
100
AcDbBlockTableRecord
  2
*G14
340
0
102
{BLKREFS
331
514
102
}
  0
BLOCK_RECORD
  5
4E4
100
AcDbSymbolTableRecord
100
AcDbBlockTableRecord
  2
*G15
340
0
102
{BLKREFS
331
4EA
102
}
  0
BLOCK_RECORD
  5
4EB
100
AcDbSymbolTableRecord
100
AcDbBlockTableRecord
  2
*G16
340
0
102
{BLKREFS
331
4F1
102
}
  0
BLOCK_RECORD
  5
4F3
100
AcDbSymbolTableRecord
100
AcDbBlockTableRecord
  2
*G17
340
0
102
{BLKREFS
331
4F9
102
}
  0
BLOCK_RECORD
  5
4FA
100
AcDbSymbolTableRecord
100
AcDbBlockTableRecord
  2
*G18
340
0
102
{BLKREFS
331
500
102
}
  0
BLOCK_RECORD
  5
502
100
AcDbSymbolTableRecord
100
AcDbBlockTableRecord
  2
*G19
340
0
102
{BLKREFS
331
508
102
}
  0
BLOCK_RECORD
  5
509
100
AcDbSymbolTableRecord
100
AcDbBlockTableRecord
  2
*G20
340
0
102
{BLKREFS
331
50F
102
}
  0
BLOCK_RECORD
  5
515
100
AcDbSymbolTableRecord
100
AcDbBlockTableRecord
  2
*G21
340
0
102
{BLKREFS
331
52A
102
}
  0
BLOCK_RECORD
  5
51A
100
AcDbSymbolTableRecord
100
AcDbBlockTableRecord
  2
*G22
340
0
102
{BLKREFS
331
520
102
}
  0
BLOCK_RECORD
  5
521
100
AcDbSymbolTableRecord
100
AcDbBlockTableRecord
  2
*G23
340
0
102
{BLKREFS
331
527
102
}
  0
BLOCK_RECORD
  5
52B
100
AcDbSymbolTableRecord
100
AcDbBlockTableRecord
  2
*G24
340
0
102
{BLKREFS
331
540
102
}
  0
BLOCK_RECORD
  5
530
100
AcDbSymbolTableRecord
100
AcDbBlockTableRecord
  2
*G25
340
0
102
{BLKREFS
331
536
102
}
  0
BLOCK_RECORD
  5
537
100
AcDbSymbolTableRecord
100
AcDbBlockTableRecord
  2
*G26
340
0
102
{BLKREFS
331
53D
102
}
  0
ENDTAB
  0
ENDSEC
  0
SECTION
  2
BLOCKS
  0
BLOCK
  5
D
100
AcDbEntity
  8
0
100
AcDbBlockBegin
  2
*MODEL_SPACE
 70
     0
 10
0.0
 20
0.0
 30
0.0
  3
*MODEL_SPACE
  1

  0
ENDBLK
  5
E
100
AcDbEntity
  8
0
100
AcDbBlockEnd
  0
BLOCK
  5
F
100
AcDbEntity
 67
     1
  8
0
100
AcDbBlockBegin
  2
*PAPER_SPACE
 70
     0
 10
0.0
 20
0.0
 30
0.0
  3
*PAPER_SPACE
  1

  0
ENDBLK
  5
10
100
AcDbEntity
 67
     1
  8
0
100
AcDbBlockEnd
  0
BLOCK
  5
42
100
AcDbEntity
  8
0
370
     9
  6
Continuous
 62
     7
100
AcDbBlockBegin
  2
*G0
 70
     0
 10
0.0
 20
0.0
 30
0.0
  3
*G0
  1

  0
ENDBLK
  5
43
100
AcDbEntity
  8
0
100
AcDbBlockEnd
  0
BLOCK
  5
432
100
AcDbEntity
  8
0
370
     9
  6
Continuous
 62
     7
100
AcDbBlockBegin
  2
*G1
 70
     0
 10
0.0
 20
0.0
 30
0.0
  3
*G1
  1

  0
LINE
  5
433
100
AcDbEntity
  8
1031
370
    30
  6
Continuous
 62
     7
100
AcDbLine
 10
301.475
 20
287.0
 30
0.0
 11
302.745
 21
287.0
 31
0.0
  0
LINE
  5
434
100
AcDbEntity
  8
1031
370
    30
  6
Continuous
 62
     7
100
AcDbLine
 10
302.745
 20
287.0
 30
0.0
 11
302.745
 21
291.0
 31
0.0
  0
LINE
  5
435
100
AcDbEntity
  8
1031
370
    30
  6
Continuous
 62
     7
100
AcDbLine
 10
302.745
 20
291.0
 30
0.0
 11
301.475
 21
291.0
 31
0.0
  0
LINE
  5
436
100
AcDbEntity
  8
1031
370
    30
  6
Continuous
 62
     7
100
AcDbLine
 10
301.475
 20
291.0
 30
0.0
 11
301.475
 21
287.0
 31
0.0
  0
LINE
  5
437
100
AcDbEntity
  8
1031
370
    30
  6
Continuous
 62
     7
100
AcDbLine
 10
304.015
 20
287.0
 30
0.0
 11
305.285
 21
287.0
 31
0.0
  0
LINE
  5
438
100
AcDbEntity
  8
1031
370
    30
  6
Continuous
 62
     7
100
AcDbLine
 10
305.285
 20
287.0
 30
0.0
 11
305.285
 21
291.0
 31
0.0
  0
LINE
  5
439
100
AcDbEntity
  8
1031
370
    30
  6
Continuous
 62
     7
100
AcDbLine
 10
305.285
 20
291.0
 30
0.0
 11
304.015
 21
291.0
 31
0.0
  0
LINE
  5
43A
100
AcDbEntity
  8
1031
370
    30
  6
Continuous
 62
     7
100
AcDbLine
 10
304.015
 20
291.0
 30
0.0
 11
304.015
 21
287.0
 31
0.0
  0
LINE
  5
43B
100
AcDbEntity
  8
1031
370
    30
  6
Continuous
 62
     7
100
AcDbLine
 10
316.715
 20
287.0
 30
0.0
 11
317.985
 21
287.0
 31
0.0
  0
LINE
  5
43C
100
AcDbEntity
  8
1031
370
    30
  6
Continuous
 62
     7
100
AcDbLine
 10
317.985
 20
287.0
 30
0.0
 11
317.985
 21
291.0
 31
0.0
  0
LINE
  5
43D
100
AcDbEntity
  8
1031
370
    30
  6
Continuous
 62
     7
100
AcDbLine
 10
317.985
 20
291.0
 30
0.0
 11
316.715
 21
291.0
 31
0.0
  0
LINE
  5
43E
100
AcDbEntity
  8
1031
370
    30
  6
Continuous
 62
     7
100
AcDbLine
 10
316.715
 20
291.0
 30
0.0
 11
316.715
 21
287.0
 31
0.0
  0
LINE
  5
43F
100
AcDbEntity
  8
1031
370
    30
  6
Continuous
 62
     7
100
AcDbLine
 10
319.255
 20
287.0
 30
0.0
 11
320.525
 21
287.0
 31
0.0
  0
LINE
  5
440
100
AcDbEntity
  8
1031
370
    30
  6
Continuous
 62
     7
100
AcDbLine
 10
320.525
 20
287.0
 30
0.0
 11
320.525
 21
291.0
 31
0.0
  0
LINE
  5
441
100
AcDbEntity
  8
1031
370
    30
  6
Continuous
 62
     7
100
AcDbLine
 10
320.525
 20
291.0
 30
0.0
 11
319.255
 21
291.0
 31
0.0
  0
LINE
  5
442
100
AcDbEntity
  8
1031
370
    30
  6
Continuous
 62
     7
100
AcDbLine
 10
319.255
 20
291.0
 30
0.0
 11
319.255
 21
287.0
 31
0.0
  0
LINE
  5
443
100
AcDbEntity
  8
1031
370
    30
  6
Continuous
 62
     7
100
AcDbLine
 10
301.475
 20
287.5
 30
0.0
 11
302.745
 21
287.5
 31
0.0
  0
LINE
  5
444
100
AcDbEntity
  8
1031
370
    30
  6
Continuous
 62
     7
100
AcDbLine
 10
302.745
 20
287.5
 30
0.0
 11
302.745
 21
289.0
 31
0.0
  0
LINE
  5
445
100
AcDbEntity
  8
1031
370
    30
  6
Continuous
 62
     7
100
AcDbLine
 10
302.745
 20
289.0
 30
0.0
 11
301.475
 21
289.0
 31
0.0
  0
LINE
  5
446
100
AcDbEntity
  8
1031
370
    30
  6
Continuous
 62
     7
100
AcDbLine
 10
301.475
 20
289.0
 30
0.0
 11
301.475
 21
287.5
 31
0.0
  0
LINE
  5
447
100
AcDbEntity
  8
1031
370
    30
  6
Continuous
 62
     7
100
AcDbLine
 10
304.015
 20
287.5
 30
0.0
 11
305.285
 21
287.5
 31
0.0
  0
LINE
  5
448
100
AcDbEntity
  8
1031
370
    30
  6
Continuous
 62
     7
100
AcDbLine
 10
305.285
 20
287.5
 30
0.0
 11
305.285
 21
289.0
 31
0.0
  0
LINE
  5
449
100
AcDbEntity
  8
1031
370
    30
  6
Continuous
 62
     7
100
AcDbLine
 10
305.285
 20
289.0
 30
0.0
 11
304.015
 21
289.0
 31
0.0
  0
LINE
  5
44A
100
AcDbEntity
  8
1031
370
    30
  6
Continuous
 62
     7
100
AcDbLine
 10
304.015
 20
289.0
 30
0.0
 11
304.015
 21
287.5
 31
0.0
  0
LINE
  5
44B
100
AcDbEntity
  8
1031
370
    30
  6
Continuous
 62
     7
100
AcDbLine
 10
316.715
 20
287.5
 30
0.0
 11
317.985
 21
287.5
 31
0.0
  0
LINE
  5
44C
100
AcDbEntity
  8
1031
370
    30
  6
Continuous
 62
     7
100
AcDbLine
 10
317.985
 20
287.5
 30
0.0
 11
317.985
 21
289.0
 31
0.0
  0
LINE
  5
44D
100
AcDbEntity
  8
1031
370
    30
  6
Continuous
 62
     7
100
AcDbLine
 10
317.985
 20
289.0
 30
0.0
 11
316.715
 21
289.0
 31
0.0
  0
LINE
  5
44E
100
AcDbEntity
  8
1031
370
    30
  6
Continuous
 62
     7
100
AcDbLine
 10
316.715
 20
289.0
 30
0.0
 11
316.715
 21
287.5
 31
0.0
  0
LINE
  5
44F
100
AcDbEntity
  8
1031
370
    30
  6
Continuous
 62
     7
100
AcDbLine
 10
319.255
 20
287.5
 30
0.0
 11
320.525
 21
287.5
 31
0.0
  0
LINE
  5
450
100
AcDbEntity
  8
1031
370
    30
  6
Continuous
 62
     7
100
AcDbLine
 10
320.525
 20
287.5
 30
0.0
 11
320.525
 21
289.0
 31
0.0
  0
LINE
  5
451
100
AcDbEntity
  8
1031
370
    30
  6
Continuous
 62
     7
100
AcDbLine
 10
320.525
 20
289.0
 30
0.0
 11
319.255
 21
289.0
 31
0.0
  0
LINE
  5
452
100
AcDbEntity
  8
1031
370
    30
  6
Continuous
 62
     7
100
AcDbLine
 10
319.255
 20
289.0
 30
0.0
 11
319.255
 21
287.5
 31
0.0
  0
POINT
  5
453
100
AcDbEntity
  8
1031
370
     9
  6
Continuous
 62
     7
100
AcDbPoint
 10
311.0
 20
289.0
 30
0.0
  0
LINE
  5
454
100
AcDbEntity
  8
1031
370
    30
  6
Continuous
 62
     7
100
AcDbLine
 10
300.0
 20
283.7
 30
0.0
 11
322.0
 21
283.7
 31
0.0
  0
LINE
  5
455
100
AcDbEntity
  8
1031
370
    30
  6
Continuous
 62
     7
100
AcDbLine
 10
322.0
 20
283.7
 30
0.0
 11
322.0
 21
294.3
 31
0.0
  0
LINE
  5
456
100
AcDbEntity
  8
1031
370
    30
  6
Continuous
 62
     7
100
AcDbLine
 10
322.0
 20
294.3
 30
0.0
 11
300.0
 21
294.3
 31
0.0
  0
LINE
  5
457
100
AcDbEntity
  8
1031
370
    30
  6
Continuous
 62
     7
100
AcDbLine
 10
300.0
 20
294.3
 30
0.0
 11
300.0
 21
283.7
 31
0.0
  0
LINE
  5
458
100
AcDbEntity
  8
1031
370
    30
  6
Continuous
 62
     7
100
AcDbLine
 10
306.555
 20
287.0
 30
0.0
 11
307.825
 21
287.0
 31
0.0
  0
LINE
  5
459
100
AcDbEntity
  8
1031
370
    30
  6
Continuous
 62
     7
100
AcDbLine
 10
307.825
 20
287.0
 30
0.0
 11
307.825
 21
291.0
 31
0.0
  0
LINE
  5
45A
100
AcDbEntity
  8
1031
370
    30
  6
Continuous
 62
     7
100
AcDbLine
 10
307.825
 20
291.0
 30
0.0
 11
306.555
 21
291.0
 31
0.0
  0
LINE
  5
45B
100
AcDbEntity
  8
1031
370
    30
  6
Continuous
 62
     7
100
AcDbLine
 10
306.555
 20
291.0
 30
0.0
 11
306.555
 21
287.0
 31
0.0
  0
LINE
  5
45C
100
AcDbEntity
  8
1031
370
    30
  6
Continuous
 62
     7
100
AcDbLine
 10
306.555
 20
287.5
 30
0.0
 11
307.825
 21
287.5
 31
0.0
  0
LINE
  5
45D
100
AcDbEntity
  8
1031
370
    30
  6
Continuous
 62
     7
100
AcDbLine
 10
307.825
 20
287.5
 30
0.0
 11
307.825
 21
289.0
 31
0.0
  0
LINE
  5
45E
100
AcDbEntity
  8
1031
370
    30
  6
Continuous
 62
     7
100
AcDbLine
 10
307.825
 20
289.0
 30
0.0
 11
306.555
 21
289.0
 31
0.0
  0
LINE
  5
45F
100
AcDbEntity
  8
1031
370
    30
  6
Continuous
 62
     7
100
AcDbLine
 10
306.555
 20
289.0
 30
0.0
 11
306.555
 21
287.5
 31
0.0
  0
LINE
  5
460
100
AcDbEntity
  8
1031
370
    30
  6
Continuous
 62
     7
100
AcDbLine
 10
309.095
 20
287.0
 30
0.0
 11
310.365
 21
287.0
 31
0.0
  0
LINE
  5
461
100
AcDbEntity
  8
1031
370
    30
  6
Continuous
 62
     7
100
AcDbLine
 10
310.365
 20
287.0
 30
0.0
 11
310.365
 21
291.0
 31
0.0
  0
LINE
  5
462
100
AcDbEntity
  8
1031
370
    30
  6
Continuous
 62
     7
100
AcDbLine
 10
310.365
 20
291.0
 30
0.0
 11
309.095
 21
291.0
 31
0.0
  0
LINE
  5
463
100
AcDbEntity
  8
1031
370
    30
  6
Continuous
 62
     7
100
AcDbLine
 10
309.095
 20
291.0
 30
0.0
 11
309.095
 21
287.0
 31
0.0
  0
LINE
  5
464
100
AcDbEntity
  8
1031
370
    30
  6
Continuous
 62
     7
100
AcDbLine
 10
309.095
 20
287.5
 30
0.0
 11
310.365
 21
287.5
 31
0.0
  0
LINE
  5
465
100
AcDbEntity
  8
1031
370
    30
  6
Continuous
 62
     7
100
AcDbLine
 10
310.365
 20
287.5
 30
0.0
 11
310.365
 21
289.0
 31
0.0
  0
LINE
  5
466
100
AcDbEntity
  8
1031
370
    30
  6
Continuous
 62
     7
100
AcDbLine
 10
310.365
 20
289.0
 30
0.0
 11
309.095
 21
289.0
 31
0.0
  0
LINE
  5
467
100
AcDbEntity
  8
1031
370
    30
  6
Continuous
 62
     7
100
AcDbLine
 10
309.095
 20
289.0
 30
0.0
 11
309.095
 21
287.5
 31
0.0
  0
LINE
  5
468
100
AcDbEntity
  8
1031
370
    30
  6
Continuous
 62
     7
100
AcDbLine
 10
311.635
 20
287.0
 30
0.0
 11
312.905
 21
287.0
 31
0.0
  0
LINE
  5
469
100
AcDbEntity
  8
1031
370
    30
  6
Continuous
 62
     7
100
AcDbLine
 10
312.905
 20
287.0
 30
0.0
 11
312.905
 21
291.0
 31
0.0
  0
LINE
  5
46A
100
AcDbEntity
  8
1031
370
    30
  6
Continuous
 62
     7
100
AcDbLine
 10
312.905
 20
291.0
 30
0.0
 11
311.635
 21
291.0
 31
0.0
  0
LINE
  5
46B
100
AcDbEntity
  8
1031
370
    30
  6
Continuous
 62
     7
100
AcDbLine
 10
311.635
 20
291.0
 30
0.0
 11
311.635
 21
287.0
 31
0.0
  0
LINE
  5
46C
100
AcDbEntity
  8
1031
370
    30
  6
Continuous
 62
     7
100
AcDbLine
 10
311.635
 20
287.5
 30
0.0
 11
312.905
 21
287.5
 31
0.0
  0
LINE
  5
46D
100
AcDbEntity
  8
1031
370
    30
  6
Continuous
 62
     7
100
AcDbLine
 10
312.905
 20
287.5
 30
0.0
 11
312.905
 21
289.0
 31
0.0
  0
LINE
  5
46E
100
AcDbEntity
  8
1031
370
    30
  6
Continuous
 62
     7
100
AcDbLine
 10
312.905
 20
289.0
 30
0.0
 11
311.635
 21
289.0
 31
0.0
  0
LINE
  5
46F
100
AcDbEntity
  8
1031
370
    30
  6
Continuous
 62
     7
100
AcDbLine
 10
311.635
 20
289.0
 30
0.0
 11
311.635
 21
287.5
 31
0.0
  0
LINE
  5
470
100
AcDbEntity
  8
1031
370
    30
  6
Continuous
 62
     7
100
AcDbLine
 10
314.175
 20
287.0
 30
0.0
 11
315.445
 21
287.0
 31
0.0
  0
LINE
  5
471
100
AcDbEntity
  8
1031
370
    30
  6
Continuous
 62
     7
100
AcDbLine
 10
315.445
 20
287.0
 30
0.0
 11
315.445
 21
291.0
 31
0.0
  0
LINE
  5
472
100
AcDbEntity
  8
1031
370
    30
  6
Continuous
 62
     7
100
AcDbLine
 10
315.445
 20
291.0
 30
0.0
 11
314.175
 21
291.0
 31
0.0
  0
LINE
  5
473
100
AcDbEntity
  8
1031
370
    30
  6
Continuous
 62
     7
100
AcDbLine
 10
314.175
 20
291.0
 30
0.0
 11
314.175
 21
287.0
 31
0.0
  0
LINE
  5
474
100
AcDbEntity
  8
1031
370
    30
  6
Continuous
 62
     7
100
AcDbLine
 10
314.175
 20
287.5
 30
0.0
 11
315.445
 21
287.5
 31
0.0
  0
LINE
  5
475
100
AcDbEntity
  8
1031
370
    30
  6
Continuous
 62
     7
100
AcDbLine
 10
315.445
 20
287.5
 30
0.0
 11
315.445
 21
289.0
 31
0.0
  0
LINE
  5
476
100
AcDbEntity
  8
1031
370
    30
  6
Continuous
 62
     7
100
AcDbLine
 10
315.445
 20
289.0
 30
0.0
 11
314.175
 21
289.0
 31
0.0
  0
LINE
  5
477
100
AcDbEntity
  8
1031
370
    30
  6
Continuous
 62
     7
100
AcDbLine
 10
314.175
 20
289.0
 30
0.0
 11
314.175
 21
287.5
 31
0.0
  0
TEXT
  5
478
100
AcDbEntity
  8
1031
370
     9
  6
Continuous
 62
     7
100
AcDbText
 10
302.245
 20
292.06
 30
0.0
 40
1.5
  1
ON
 41
0.357143
 11
302.245
 21
292.06
 31
0.0
100
AcDbText
 73
     1
  0
TEXT
  5
479
100
AcDbEntity
  8
1031
370
     9
  6
Continuous
 62
     7
100
AcDbText
 10
301.815
 20
284.44
 30
0.0
 40
1.5
  1
1
 41
0.4
 11
301.815
 21
284.44
 31
0.0
100
AcDbText
 73
     1
  0
TEXT
  5
47A
100
AcDbEntity
  8
1031
370
     9
  6
Continuous
 62
     7
100
AcDbText
 10
304.355
 20
284.44
 30
0.0
 40
1.5
  1
2
 41
0.4
 11
304.355
 21
284.44
 31
0.0
100
AcDbText
 73
     1
  0
TEXT
  5
47B
100
AcDbEntity
  8
1031
370
     9
  6
Continuous
 62
     7
100
AcDbText
 10
317.055
 20
284.44
 30
0.0
 40
1.5
  1
7
 41
0.4
 11
317.055
 21
284.44
 31
0.0
100
AcDbText
 73
     1
  0
TEXT
  5
47C
100
AcDbEntity
  8
1031
370
     9
  6
Continuous
 62
     7
100
AcDbText
 10
319.595
 20
284.44
 30
0.0
 40
1.5
  1
8
 41
0.4
 11
319.595
 21
284.44
 31
0.0
100
AcDbText
 73
     1
  0
TEXT
  5
47D
100
AcDbEntity
  8
1031
370
     9
  6
Continuous
 62
     7
100
AcDbText
 10
306.895
 20
284.44
 30
0.0
 40
1.5
  1
3
 41
0.4
 11
306.895
 21
284.44
 31
0.0
100
AcDbText
 73
     1
  0
TEXT
  5
47E
100
AcDbEntity
  8
1031
370
     9
  6
Continuous
 62
     7
100
AcDbText
 10
309.435
 20
284.44
 30
0.0
 40
1.5
  1
4
 41
0.4
 11
309.435
 21
284.44
 31
0.0
100
AcDbText
 73
     1
  0
TEXT
  5
47F
100
AcDbEntity
  8
1031
370
     9
  6
Continuous
 62
     7
100
AcDbText
 10
311.975
 20
284.44
 30
0.0
 40
1.5
  1
5
 41
0.4
 11
311.975
 21
284.44
 31
0.0
100
AcDbText
 73
     1
  0
TEXT
  5
480
100
AcDbEntity
  8
1031
370
     9
  6
Continuous
 62
     7
100
AcDbText
 10
314.515
 20
284.44
 30
0.0
 40
1.5
  1
6
 41
0.4
 11
314.515
 21
284.44
 31
0.0
100
AcDbText
 73
     1
  0
ENDBLK
  5
481
100
AcDbEntity
  8
0
100
AcDbBlockEnd
  0
BLOCK
  5
484
100
AcDbEntity
  8
0
370
     9
  6
Continuous
 62
     7
100
AcDbBlockBegin
  2
*G2
 70
     0
 10
0.0
 20
0.0
 30
0.0
  3
*G2
  1

  0
LINE
  5
485
100
AcDbEntity
  8
1031
370
    30
  6
Continuous
 62
     7
100
AcDbLine
 10
265.0
 20
257.0
 30
0.0
 11
433.0
 21
257.0
 31
0.0
  0
INSERT
  5
48C
100
AcDbEntity
  8
0
370
     9
  6
Continuous
 62
     7
100
AcDbBlockReference
  2
*G3
 10
0.0
 20
0.0
 30
0.0
  0
INSERT
  5
493
100
AcDbEntity
  8
0
370
     9
  6
Continuous
 62
     7
100
AcDbBlockReference
  2
*G4
 10
0.0
 20
0.0
 30
0.0
  0
LINE
  5
494
100
AcDbEntity
  8
1031
370
    30
  6
Continuous
 62
     7
100
AcDbLine
 10
265.0
 20
282.0
 30
0.0
 11
265.0
 21
256.0
 31
0.0
  0
LINE
  5
495
100
AcDbEntity
  8
1031
370
    30
  6
Continuous
 62
     7
100
AcDbLine
 10
433.0
 20
282.0
 30
0.0
 11
433.0
 21
256.0
 31
0.0
  0
TEXT
  5
496
100
AcDbEntity
  8
1031
370
     9
  6
Continuous
 62
     7
100
AcDbText
 10
346.9
 20
258.0
 30
0.0
 40
3.5
  1
168
 41
0.4
 11
346.9
 21
258.0
 31
0.0
100
AcDbText
 73
     1
  0
ENDBLK
  5
497
100
AcDbEntity
  8
0
100
AcDbBlockEnd
  0
BLOCK
  5
487
100
AcDbEntity
  8
0
370
     9
  6
Continuous
 62
     7
100
AcDbBlockBegin
  2
*G3
 70
     0
 10
0.0
 20
0.0
 30
0.0
  3
*G3
  1

  0
LINE
  5
488
100
AcDbEntity
  8
1031
370
     9
  6
Continuous
 62
     7
100
AcDbLine
 10
268.000003
 20
256.196156
 30
0.0
 11
265.0
 21
257.0
 31
0.0
  0
LINE
  5
489
100
AcDbEntity
  8
1031
370
     9
  6
Continuous
 62
     7
100
AcDbLine
 10
265.0
 20
257.0
 30
0.0
 11
268.000003
 21
257.803844
 31
0.0
  0
LINE
  5
48A
100
AcDbEntity
  8
1031
370
     9
  6
Continuous
 62
     7
100
AcDbLine
 10
265.0
 20
257.0
 30
0.0
 11
268.000003
 21
257.0
 31
0.0
  0
ENDBLK
  5
48B
100
AcDbEntity
  8
0
100
AcDbBlockEnd
  0
BLOCK
  5
48E
100
AcDbEntity
  8
0
370
     9
  6
Continuous
 62
     7
100
AcDbBlockBegin
  2
*G4
 70
     0
 10
0.0
 20
0.0
 30
0.0
  3
*G4
  1

  0
LINE
  5
48F
100
AcDbEntity
  8
1031
370
     9
  6
Continuous
 62
     7
100
AcDbLine
 10
429.999997
 20
257.803844
 30
0.0
 11
433.0
 21
257.0
 31
0.0
  0
LINE
  5
490
100
AcDbEntity
  8
1031
370
     9
  6
Continuous
 62
     7
100
AcDbLine
 10
433.0
 20
257.0
 30
0.0
 11
429.999997
 21
256.196156
 31
0.0
  0
LINE
  5
491
100
AcDbEntity
  8
1031
370
     9
  6
Continuous
 62
     7
100
AcDbLine
 10
433.0
 20
257.0
 30
0.0
 11
429.999997
 21
257.0
 31
0.0
  0
ENDBLK
  5
492
100
AcDbEntity
  8
0
100
AcDbBlockEnd
  0
BLOCK
  5
49A
100
AcDbEntity
  8
0
370
     9
  6
Continuous
 62
     7
100
AcDbBlockBegin
  2
*G5
 70
     0
 10
0.0
 20
0.0
 30
0.0
  3
*G5
  1

  0
LINE
  5
49B
100
AcDbEntity
  8
1031
370
    30
  6
Continuous
 62
     7
100
AcDbLine
 10
272.0
 20
272.0
 30
0.0
 11
426.0
 21
272.0
 31
0.0
  0
INSERT
  5
4A2
100
AcDbEntity
  8
0
370
     9
  6
Continuous
 62
     7
100
AcDbBlockReference
  2
*G6
 10
0.0
 20
0.0
 30
0.0
  0
INSERT
  5
4A9
100
AcDbEntity
  8
0
370
     9
  6
Continuous
 62
     7
100
AcDbBlockReference
  2
*G7
 10
0.0
 20
0.0
 30
0.0
  0
LINE
  5
4AA
100
AcDbEntity
  8
1031
370
    30
  6
Continuous
 62
     7
100
AcDbLine
 10
272.0
 20
281.0
 30
0.0
 11
272.0
 21
271.0
 31
0.0
  0
LINE
  5
4AB
100
AcDbEntity
  8
1031
370
    30
  6
Continuous
 62
     7
100
AcDbLine
 10
426.0
 20
281.0
 30
0.0
 11
426.0
 21
271.0
 31
0.0
  0
TEXT
  5
4AC
100
AcDbEntity
  8
1031
370
     9
  6
Continuous
 62
     7
100
AcDbText
 10
346.9
 20
273.0
 30
0.0
 40
3.5
  1
154
 41
0.4
 11
346.9
 21
273.0
 31
0.0
100
AcDbText
 73
     1
  0
ENDBLK
  5
4AD
100
AcDbEntity
  8
0
100
AcDbBlockEnd
  0
BLOCK
  5
49D
100
AcDbEntity
  8
0
370
     9
  6
Continuous
 62
     7
100
AcDbBlockBegin
  2
*G6
 70
     0
 10
0.0
 20
0.0
 30
0.0
  3
*G6
  1

  0
LINE
  5
49E
100
AcDbEntity
  8
1031
370
     9
  6
Continuous
 62
     7
100
AcDbLine
 10
275.000003
 20
271.196156
 30
0.0
 11
272.0
 21
272.0
 31
0.0
  0
LINE
  5
49F
100
AcDbEntity
  8
1031
370
     9
  6
Continuous
 62
     7
100
AcDbLine
 10
272.0
 20
272.0
 30
0.0
 11
275.000003
 21
272.803844
 31
0.0
  0
LINE
  5
4A0
100
AcDbEntity
  8
1031
370
     9
  6
Continuous
 62
     7
100
AcDbLine
 10
272.0
 20
272.0
 30
0.0
 11
275.000003
 21
272.0
 31
0.0
  0
ENDBLK
  5
4A1
100
AcDbEntity
  8
0
100
AcDbBlockEnd
  0
BLOCK
  5
4A4
100
AcDbEntity
  8
0
370
     9
  6
Continuous
 62
     7
100
AcDbBlockBegin
  2
*G7
 70
     0
 10
0.0
 20
0.0
 30
0.0
  3
*G7
  1

  0
LINE
  5
4A5
100
AcDbEntity
  8
1031
370
     9
  6
Continuous
 62
     7
100
AcDbLine
 10
422.999997
 20
272.803844
 30
0.0
 11
426.0
 21
272.0
 31
0.0
  0
LINE
  5
4A6
100
AcDbEntity
  8
1031
370
     9
  6
Continuous
 62
     7
100
AcDbLine
 10
426.0
 20
272.0
 30
0.0
 11
422.999997
 21
271.196156
 31
0.0
  0
LINE
  5
4A7
100
AcDbEntity
  8
1031
370
     9
  6
Continuous
 62
     7
100
AcDbLine
 10
426.0
 20
272.0
 30
0.0
 11
422.999997
 21
272.0
 31
0.0
  0
ENDBLK
  5
4A8
100
AcDbEntity
  8
0
100
AcDbBlockEnd
  0
BLOCK
  5
4B0
100
AcDbEntity
  8
0
370
     9
  6
Continuous
 62
     7
100
AcDbBlockBegin
  2
*G8
 70
     0
 10
0.0
 20
0.0
 30
0.0
  3
*G8
  1

  0
LINE
  5
4B1
100
AcDbEntity
  8
1031
370
    30
  6
Continuous
 62
     7
100
AcDbLine
 10
268.0
 20
301.0
 30
0.0
 11
268.0
 21
263.5
 31
0.0
  0
LINE
  5
4B2
100
AcDbEntity
  8
1031
370
    30
  6
Continuous
 62
     7
100
AcDbLine
 10
430.0
 20
301.0
 30
0.0
 11
430.0
 21
263.5
 31
0.0
  0
LINE
  5
4B3
100
AcDbEntity
  8
1031
370
    30
  6
Continuous
 62
     7
100
AcDbLine
 10
268.0
 20
264.5
 30
0.0
 11
430.0
 21
264.5
 31
0.0
  0
INSERT
  5
4BA
100
AcDbEntity
  8
0
370
     9
  6
Continuous
 62
     7
100
AcDbBlockReference
  2
*G9
 10
0.0
 20
0.0
 30
0.0
  0
INSERT
  5
4C1
100
AcDbEntity
  8
0
370
     9
  6
Continuous
 62
     7
100
AcDbBlockReference
  2
*G10
 10
0.0
 20
0.0
 30
0.0
  0
TEXT
  5
4C2
100
AcDbEntity
  8
1031
370
     9
  6
Continuous
 62
     7
100
AcDbText
 10
346.9
 20
265.5
 30
0.0
 40
3.5
  1
162
 41
0.4
 11
346.9
 21
265.5
 31
0.0
100
AcDbText
 73
     1
  0
ENDBLK
  5
4C3
100
AcDbEntity
  8
0
100
AcDbBlockEnd
  0
BLOCK
  5
4B5
100
AcDbEntity
  8
0
370
     9
  6
Continuous
 62
     7
100
AcDbBlockBegin
  2
*G9
 70
     0
 10
0.0
 20
0.0
 30
0.0
  3
*G9
  1

  0
LINE
  5
4B6
100
AcDbEntity
  8
1031
370
     9
  6
Continuous
 62
     7
100
AcDbLine
 10
271.000003
 20
263.696156
 30
0.0
 11
268.0
 21
264.5
 31
0.0
  0
LINE
  5
4B7
100
AcDbEntity
  8
1031
370
     9
  6
Continuous
 62
     7
100
AcDbLine
 10
268.0
 20
264.5
 30
0.0
 11
271.000003
 21
265.303844
 31
0.0
  0
LINE
  5
4B8
100
AcDbEntity
  8
1031
370
     9
  6
Continuous
 62
     7
100
AcDbLine
 10
268.0
 20
264.5
 30
0.0
 11
271.000003
 21
264.5
 31
0.0
  0
ENDBLK
  5
4B9
100
AcDbEntity
  8
0
100
AcDbBlockEnd
  0
BLOCK
  5
4BC
100
AcDbEntity
  8
0
370
     9
  6
Continuous
 62
     7
100
AcDbBlockBegin
  2
*G10
 70
     0
 10
0.0
 20
0.0
 30
0.0
  3
*G10
  1

  0
LINE
  5
4BD
100
AcDbEntity
  8
1031
370
     9
  6
Continuous
 62
     7
100
AcDbLine
 10
426.999997
 20
265.303844
 30
0.0
 11
430.0
 21
264.5
 31
0.0
  0
LINE
  5
4BE
100
AcDbEntity
  8
1031
370
     9
  6
Continuous
 62
     7
100
AcDbLine
 10
430.0
 20
264.5
 30
0.0
 11
426.999997
 21
263.696156
 31
0.0
  0
LINE
  5
4BF
100
AcDbEntity
  8
1031
370
     9
  6
Continuous
 62
     7
100
AcDbLine
 10
430.0
 20
264.5
 30
0.0
 11
426.999997
 21
264.5
 31
0.0
  0
ENDBLK
  5
4C0
100
AcDbEntity
  8
0
100
AcDbBlockEnd
  0
BLOCK
  5
4C6
100
AcDbEntity
  8
0
370
     9
  6
Continuous
 62
     7
100
AcDbBlockBegin
  2
*G11
 70
     0
 10
0.0
 20
0.0
 30
0.0
  3
*G11
  1

  0
LINE
  5
4C7
100
AcDbEntity
  8
1031
370
    30
  6
Continuous
 62
     7
100
AcDbLine
 10
433.0
 20
300.35
 30
0.0
 11
441.5
 21
300.35
 31
0.0
  0
LINE
  5
4C8
100
AcDbEntity
  8
1031
370
    30
  6
Continuous
 62
     7
100
AcDbLine
 10
433.0
 20
303.65
 30
0.0
 11
441.5
 21
303.65
 31
0.0
  0
LINE
  5
4C9
100
AcDbEntity
  8
1031
370
    30
  6
Continuous
 62
     7
100
AcDbLine
 10
440.5
 20
300.35
 30
0.0
 11
440.5
 21
303.65
 31
0.0
  0
LINE
  5
4CA
100
AcDbEntity
  8
1031
370
    30
  6
Continuous
 62
     7
100
AcDbLine
 10
440.5
 20
312.74778
 30
0.0
 11
440.5
 21
303.65
 31
0.0
  0
INSERT
  5
4D1
100
AcDbEntity
  8
0
370
     9
  6
Continuous
 62
     7
100
AcDbBlockReference
  2
*G12
 10
0.0
 20
0.0
 30
0.0
  0
LINE
  5
4D2
100
AcDbEntity
  8
1031
370
    30
  6
Continuous
 62
     7
100
AcDbLine
 10
440.5
 20
295.35
 30
0.0
 11
440.5
 21
300.35
 31
0.0
  0
INSERT
  5
4D9
100
AcDbEntity
  8
0
370
     9
  6
Continuous
 62
     7
100
AcDbBlockReference
  2
*G13
 10
0.0
 20
0.0
 30
0.0
  0
TEXT
  5
4DA
100
AcDbEntity
  8
1031
370
     9
  6
Continuous
 62
     7
100
AcDbText
 10
439.5
 20
307.54778
 30
0.0
 40
3.5
  1
3.3
 50
90.0
 41
0.346667
 11
439.5
 21
307.54778
 31
0.0
100
AcDbText
 73
     1
  0
ENDBLK
  5
4DB
100
AcDbEntity
  8
0
100
AcDbBlockEnd
  0
BLOCK
  5
4CC
100
AcDbEntity
  8
0
370
     9
  6
Continuous
 62
     7
100
AcDbBlockBegin
  2
*G12
 70
     0
 10
0.0
 20
0.0
 30
0.0
  3
*G12
  1

  0
LINE
  5
4CD
100
AcDbEntity
  8
1031
370
     9
  6
Continuous
 62
     7
100
AcDbLine
 10
441.303844
 20
306.650003
 30
0.0
 11
440.5
 21
303.65
 31
0.0
  0
LINE
  5
4CE
100
AcDbEntity
  8
1031
370
     9
  6
Continuous
 62
     7
100
AcDbLine
 10
440.5
 20
303.65
 30
0.0
 11
439.696156
 21
306.650003
 31
0.0
  0
LINE
  5
4CF
100
AcDbEntity
  8
1031
370
     9
  6
Continuous
 62
     7
100
AcDbLine
 10
440.5
 20
303.65
 30
0.0
 11
440.5
 21
306.650003
 31
0.0
  0
ENDBLK
  5
4D0
100
AcDbEntity
  8
0
100
AcDbBlockEnd
  0
BLOCK
  5
4D4
100
AcDbEntity
  8
0
370
     9
  6
Continuous
 62
     7
100
AcDbBlockBegin
  2
*G13
 70
     0
 10
0.0
 20
0.0
 30
0.0
  3
*G13
  1

  0
LINE
  5
4D5
100
AcDbEntity
  8
1031
370
     9
  6
Continuous
 62
     7
100
AcDbLine
 10
439.696156
 20
297.349997
 30
0.0
 11
440.5
 21
300.35
 31
0.0
  0
LINE
  5
4D6
100
AcDbEntity
  8
1031
370
     9
  6
Continuous
 62
     7
100
AcDbLine
 10
440.5
 20
300.35
 30
0.0
 11
441.303844
 21
297.349997
 31
0.0
  0
LINE
  5
4D7
100
AcDbEntity
  8
1031
370
     9
  6
Continuous
 62
     7
100
AcDbLine
 10
440.5
 20
300.35
 30
0.0
 11
440.5
 21
297.349997
 31
0.0
  0
ENDBLK
  5
4D8
100
AcDbEntity
  8
0
100
AcDbBlockEnd
  0
BLOCK
  5
4DE
100
AcDbEntity
  8
0
370
     9
  6
Continuous
 62
     7
100
AcDbBlockBegin
  2
*G14
 70
     0
 10
0.0
 20
0.0
 30
0.0
  3
*G14
  1

  0
LINE
  5
4DF
100
AcDbEntity
  8
1031
370
    30
  6
Continuous
 62
     7
100
AcDbLine
 10
431.0
 20
302.0
 30
0.0
 11
446.5
 21
302.0
 31
0.0
  0
LINE
  5
4E0
100
AcDbEntity
  8
1031
370
    30
  6
Continuous
 62
     7
100
AcDbLine
 10
433.0
 20
282.0
 30
0.0
 11
446.5
 21
282.0
 31
0.0
  0
LINE
  5
4E1
100
AcDbEntity
  8
1031
370
    30
  6
Continuous
 62
     7
100
AcDbLine
 10
431.0
 20
377.0
 30
0.0
 11
446.5
 21
377.0
 31
0.0
  0
LINE
  5
4E2
100
AcDbEntity
  8
1031
370
    30
  6
Continuous
 62
     7
100
AcDbLine
 10
433.0
 20
397.0
 30
0.0
 11
446.5
 21
397.0
 31
0.0
  0
LINE
  5
4E3
100
AcDbEntity
  8
1031
370
    30
  6
Continuous
 62
     7
100
AcDbLine
 10
445.5
 20
282.0
 30
0.0
 11
445.5
 21
302.0
 31
0.0
  0
INSERT
  5
4EA
100
AcDbEntity
  8
0
370
     9
  6
Continuous
 62
     7
100
AcDbBlockReference
  2
*G15
 10
0.0
 20
0.0
 30
0.0
  0
INSERT
  5
4F1
100
AcDbEntity
  8
0
370
     9
  6
Continuous
 62
     7
100
AcDbBlockReference
  2
*G16
 10
0.0
 20
0.0
 30
0.0
  0
LINE
  5
4F2
100
AcDbEntity
  8
1031
370
    30
  6
Continuous
 62
     7
100
AcDbLine
 10
445.5
 20
302.0
 30
0.0
 11
445.5
 21
377.0
 31
0.0
  0
INSERT
  5
4F9
100
AcDbEntity
  8
0
370
     9
  6
Continuous
 62
     7
100
AcDbBlockReference
  2
*G17
 10
0.0
 20
0.0
 30
0.0
  0
INSERT
  5
500
100
AcDbEntity
  8
0
370
     9
  6
Continuous
 62
     7
100
AcDbBlockReference
  2
*G18
 10
0.0
 20
0.0
 30
0.0
  0
LINE
  5
501
100
AcDbEntity
  8
1031
370
    30
  6
Continuous
 62
     7
100
AcDbLine
 10
445.5
 20
377.0
 30
0.0
 11
445.5
 21
397.0
 31
0.0
  0
INSERT
  5
508
100
AcDbEntity
  8
0
370
     9
  6
Continuous
 62
     7
100
AcDbBlockReference
  2
*G19
 10
0.0
 20
0.0
 30
0.0
  0
INSERT
  5
50F
100
AcDbEntity
  8
0
370
     9
  6
Continuous
 62
     7
100
AcDbBlockReference
  2
*G20
 10
0.0
 20
0.0
 30
0.0
  0
TEXT
  5
510
100
AcDbEntity
  8
1031
370
     9
  6
Continuous
 62
     7
100
AcDbText
 10
444.5
 20
290.6
 30
0.0
 40
3.5
  1
20
 50
90.0
 41
0.4
 11
444.5
 21
290.6
 31
0.0
100
AcDbText
 73
     1
  0
TEXT
  5
511
100
AcDbEntity
  8
1031
370
     9
  6
Continuous
 62
     7
100
AcDbText
 10
444.5
 20
338.1
 30
0.0
 40
3.5
  1
75
 50
90.0
 41
0.4
 11
444.5
 21
338.1
 31
0.0
100
AcDbText
 73
     1
  0
TEXT
  5
512
100
AcDbEntity
  8
1031
370
     9
  6
Continuous
 62
     7
100
AcDbText
 10
444.5
 20
385.6
 30
0.0
 40
3.5
  1
20
 50
90.0
 41
0.4
 11
444.5
 21
385.6
 31
0.0
100
AcDbText
 73
     1
  0
ENDBLK
  5
513
100
AcDbEntity
  8
0
100
AcDbBlockEnd
  0
BLOCK
  5
4E5
100
AcDbEntity
  8
0
370
     9
  6
Continuous
 62
     7
100
AcDbBlockBegin
  2
*G15
 70
     0
 10
0.0
 20
0.0
 30
0.0
  3
*G15
  1

  0
LINE
  5
4E6
100
AcDbEntity
  8
1031
370
     9
  6
Continuous
 62
     7
100
AcDbLine
 10
446.303844
 20
285.000003
 30
0.0
 11
445.5
 21
282.0
 31
0.0
  0
LINE
  5
4E7
100
AcDbEntity
  8
1031
370
     9
  6
Continuous
 62
     7
100
AcDbLine
 10
445.5
 20
282.0
 30
0.0
 11
444.696156
 21
285.000003
 31
0.0
  0
LINE
  5
4E8
100
AcDbEntity
  8
1031
370
     9
  6
Continuous
 62
     7
100
AcDbLine
 10
445.5
 20
282.0
 30
0.0
 11
445.5
 21
285.000003
 31
0.0
  0
ENDBLK
  5
4E9
100
AcDbEntity
  8
0
100
AcDbBlockEnd
  0
BLOCK
  5
4EC
100
AcDbEntity
  8
0
370
     9
  6
Continuous
 62
     7
100
AcDbBlockBegin
  2
*G16
 70
     0
 10
0.0
 20
0.0
 30
0.0
  3
*G16
  1

  0
LINE
  5
4ED
100
AcDbEntity
  8
1031
370
     9
  6
Continuous
 62
     7
100
AcDbLine
 10
444.696156
 20
298.999997
 30
0.0
 11
445.5
 21
302.0
 31
0.0
  0
LINE
  5
4EE
100
AcDbEntity
  8
1031
370
     9
  6
Continuous
 62
     7
100
AcDbLine
 10
445.5
 20
302.0
 30
0.0
 11
446.303844
 21
298.999997
 31
0.0
  0
LINE
  5
4EF
100
AcDbEntity
  8
1031
370
     9
  6
Continuous
 62
     7
100
AcDbLine
 10
445.5
 20
302.0
 30
0.0
 11
445.5
 21
298.999997
 31
0.0
  0
ENDBLK
  5
4F0
100
AcDbEntity
  8
0
100
AcDbBlockEnd
  0
BLOCK
  5
4F4
100
AcDbEntity
  8
0
370
     9
  6
Continuous
 62
     7
100
AcDbBlockBegin
  2
*G17
 70
     0
 10
0.0
 20
0.0
 30
0.0
  3
*G17
  1

  0
LINE
  5
4F5
100
AcDbEntity
  8
1031
370
     9
  6
Continuous
 62
     7
100
AcDbLine
 10
446.303844
 20
305.000003
 30
0.0
 11
445.5
 21
302.0
 31
0.0
  0
LINE
  5
4F6
100
AcDbEntity
  8
1031
370
     9
  6
Continuous
 62
     7
100
AcDbLine
 10
445.5
 20
302.0
 30
0.0
 11
444.696156
 21
305.000003
 31
0.0
  0
LINE
  5
4F7
100
AcDbEntity
  8
1031
370
     9
  6
Continuous
 62
     7
100
AcDbLine
 10
445.5
 20
302.0
 30
0.0
 11
445.5
 21
305.000003
 31
0.0
  0
ENDBLK
  5
4F8
100
AcDbEntity
  8
0
100
AcDbBlockEnd
  0
BLOCK
  5
4FB
100
AcDbEntity
  8
0
370
     9
  6
Continuous
 62
     7
100
AcDbBlockBegin
  2
*G18
 70
     0
 10
0.0
 20
0.0
 30
0.0
  3
*G18
  1

  0
LINE
  5
4FC
100
AcDbEntity
  8
1031
370
     9
  6
Continuous
 62
     7
100
AcDbLine
 10
444.696156
 20
373.999997
 30
0.0
 11
445.5
 21
377.0
 31
0.0
  0
LINE
  5
4FD
100
AcDbEntity
  8
1031
370
     9
  6
Continuous
 62
     7
100
AcDbLine
 10
445.5
 20
377.0
 30
0.0
 11
446.303844
 21
373.999997
 31
0.0
  0
LINE
  5
4FE
100
AcDbEntity
  8
1031
370
     9
  6
Continuous
 62
     7
100
AcDbLine
 10
445.5
 20
377.0
 30
0.0
 11
445.5
 21
373.999997
 31
0.0
  0
ENDBLK
  5
4FF
100
AcDbEntity
  8
0
100
AcDbBlockEnd
  0
BLOCK
  5
503
100
AcDbEntity
  8
0
370
     9
  6
Continuous
 62
     7
100
AcDbBlockBegin
  2
*G19
 70
     0
 10
0.0
 20
0.0
 30
0.0
  3
*G19
  1

  0
LINE
  5
504
100
AcDbEntity
  8
1031
370
     9
  6
Continuous
 62
     7
100
AcDbLine
 10
446.303844
 20
380.000003
 30
0.0
 11
445.5
 21
377.0
 31
0.0
  0
LINE
  5
505
100
AcDbEntity
  8
1031
370
     9
  6
Continuous
 62
     7
100
AcDbLine
 10
445.5
 20
377.0
 30
0.0
 11
444.696156
 21
380.000003
 31
0.0
  0
LINE
  5
506
100
AcDbEntity
  8
1031
370
     9
  6
Continuous
 62
     7
100
AcDbLine
 10
445.5
 20
377.0
 30
0.0
 11
445.5
 21
380.000003
 31
0.0
  0
ENDBLK
  5
507
100
AcDbEntity
  8
0
100
AcDbBlockEnd
  0
BLOCK
  5
50A
100
AcDbEntity
  8
0
370
     9
  6
Continuous
 62
     7
100
AcDbBlockBegin
  2
*G20
 70
     0
 10
0.0
 20
0.0
 30
0.0
  3
*G20
  1

  0
LINE
  5
50B
100
AcDbEntity
  8
1031
370
     9
  6
Continuous
 62
     7
100
AcDbLine
 10
444.696156
 20
393.999997
 30
0.0
 11
445.5
 21
397.0
 31
0.0
  0
LINE
  5
50C
100
AcDbEntity
  8
1031
370
     9
  6
Continuous
 62
     7
100
AcDbLine
 10
445.5
 20
397.0
 30
0.0
 11
446.303844
 21
393.999997
 31
0.0
  0
LINE
  5
50D
100
AcDbEntity
  8
1031
370
     9
  6
Continuous
 62
     7
100
AcDbLine
 10
445.5
 20
397.0
 30
0.0
 11
445.5
 21
393.999997
 31
0.0
  0
ENDBLK
  5
50E
100
AcDbEntity
  8
0
100
AcDbBlockEnd
  0
BLOCK
  5
516
100
AcDbEntity
  8
0
370
     9
  6
Continuous
 62
     7
100
AcDbBlockBegin
  2
*G21
 70
     0
 10
0.0
 20
0.0
 30
0.0
  3
*G21
  1

  0
LINE
  5
517
100
AcDbEntity
  8
1031
370
    30
  6
Continuous
 62
     7
100
AcDbLine
 10
433.0
 20
282.0
 30
0.0
 11
454.0
 21
282.0
 31
0.0
  0
LINE
  5
518
100
AcDbEntity
  8
1031
370
    30
  6
Continuous
 62
     7
100
AcDbLine
 10
433.0
 20
397.0
 30
0.0
 11
454.0
 21
397.0
 31
0.0
  0
LINE
  5
519
100
AcDbEntity
  8
1031
370
    30
  6
Continuous
 62
     7
100
AcDbLine
 10
453.0
 20
282.0
 30
0.0
 11
453.0
 21
397.0
 31
0.0
  0
INSERT
  5
520
100
AcDbEntity
  8
0
370
     9
  6
Continuous
 62
     7
100
AcDbBlockReference
  2
*G22
 10
0.0
 20
0.0
 30
0.0
  0
INSERT
  5
527
100
AcDbEntity
  8
0
370
     9
  6
Continuous
 62
     7
100
AcDbBlockReference
  2
*G23
 10
0.0
 20
0.0
 30
0.0
  0
TEXT
  5
528
100
AcDbEntity
  8
1031
370
     9
  6
Continuous
 62
     7
100
AcDbText
 10
452.0
 20
337.4
 30
0.0
 40
3.5
  1
115
 50
90.0
 41
0.4
 11
452.0
 21
337.4
 31
0.0
100
AcDbText
 73
     1
  0
ENDBLK
  5
529
100
AcDbEntity
  8
0
100
AcDbBlockEnd
  0
BLOCK
  5
51B
100
AcDbEntity
  8
0
370
     9
  6
Continuous
 62
     7
100
AcDbBlockBegin
  2
*G22
 70
     0
 10
0.0
 20
0.0
 30
0.0
  3
*G22
  1

  0
LINE
  5
51C
100
AcDbEntity
  8
1031
370
     9
  6
Continuous
 62
     7
100
AcDbLine
 10
453.803844
 20
285.000003
 30
0.0
 11
453.0
 21
282.0
 31
0.0
  0
LINE
  5
51D
100
AcDbEntity
  8
1031
370
     9
  6
Continuous
 62
     7
100
AcDbLine
 10
453.0
 20
282.0
 30
0.0
 11
452.196156
 21
285.000003
 31
0.0
  0
LINE
  5
51E
100
AcDbEntity
  8
1031
370
     9
  6
Continuous
 62
     7
100
AcDbLine
 10
453.0
 20
282.0
 30
0.0
 11
453.0
 21
285.000003
 31
0.0
  0
ENDBLK
  5
51F
100
AcDbEntity
  8
0
100
AcDbBlockEnd
  0
BLOCK
  5
522
100
AcDbEntity
  8
0
370
     9
  6
Continuous
 62
     7
100
AcDbBlockBegin
  2
*G23
 70
     0
 10
0.0
 20
0.0
 30
0.0
  3
*G23
  1

  0
LINE
  5
523
100
AcDbEntity
  8
1031
370
     9
  6
Continuous
 62
     7
100
AcDbLine
 10
452.196156
 20
393.999997
 30
0.0
 11
453.0
 21
397.0
 31
0.0
  0
LINE
  5
524
100
AcDbEntity
  8
1031
370
     9
  6
Continuous
 62
     7
100
AcDbLine
 10
453.0
 20
397.0
 30
0.0
 11
453.803844
 21
393.999997
 31
0.0
  0
LINE
  5
525
100
AcDbEntity
  8
1031
370
     9
  6
Continuous
 62
     7
100
AcDbLine
 10
453.0
 20
397.0
 30
0.0
 11
453.0
 21
393.999997
 31
0.0
  0
ENDBLK
  5
526
100
AcDbEntity
  8
0
100
AcDbBlockEnd
  0
BLOCK
  5
52C
100
AcDbEntity
  8
0
370
     9
  6
Continuous
 62
     7
100
AcDbBlockBegin
  2
*G24
 70
     0
 10
0.0
 20
0.0
 30
0.0
  3
*G24
  1

  0
LINE
  5
52D
100
AcDbEntity
  8
1031
370
    30
  6
Continuous
 62
     7
100
AcDbLine
 10
530.0
 20
281.0
 30
0.0
 11
530.0
 21
263.5
 31
0.0
  0
LINE
  5
52E
100
AcDbEntity
  8
1031
370
    30
  6
Continuous
 62
     7
100
AcDbLine
 10
503.5
 20
296.0
 30
0.0
 11
503.5
 21
263.5
 31
0.0
  0
LINE
  5
52F
100
AcDbEntity
  8
1031
370
    30
  6
Continuous
 62
     7
100
AcDbLine
 10
503.5
 20
264.5
 30
0.0
 11
530.0
 21
264.5
 31
0.0
  0
INSERT
  5
536
100
AcDbEntity
  8
0
370
     9
  6
Continuous
 62
     7
100
AcDbBlockReference
  2
*G25
 10
0.0
 20
0.0
 30
0.0
  0
INSERT
  5
53D
100
AcDbEntity
  8
0
370
     9
  6
Continuous
 62
     7
100
AcDbBlockReference
  2
*G26
 10
0.0
 20
0.0
 30
0.0
  0
TEXT
  5
53E
100
AcDbEntity
  8
1031
370
     9
  6
Continuous
 62
     7
100
AcDbText
 10
513.95
 20
265.5
 30
0.0
 40
3.5
  1
26.5
 41
0.36
 11
513.95
 21
265.5
 31
0.0
100
AcDbText
 73
     1
  0
ENDBLK
  5
53F
100
AcDbEntity
  8
0
100
AcDbBlockEnd
  0
BLOCK
  5
531
100
AcDbEntity
  8
0
370
     9
  6
Continuous
 62
     7
100
AcDbBlockBegin
  2
*G25
 70
     0
 10
0.0
 20
0.0
 30
0.0
  3
*G25
  1

  0
LINE
  5
532
100
AcDbEntity
  8
1031
370
     9
  6
Continuous
 62
     7
100
AcDbLine
 10
506.500003
 20
263.696156
 30
0.0
 11
503.5
 21
264.5
 31
0.0
  0
LINE
  5
533
100
AcDbEntity
  8
1031
370
     9
  6
Continuous
 62
     7
100
AcDbLine
 10
503.5
 20
264.5
 30
0.0
 11
506.500003
 21
265.303844
 31
0.0
  0
LINE
  5
534
100
AcDbEntity
  8
1031
370
     9
  6
Continuous
 62
     7
100
AcDbLine
 10
503.5
 20
264.5
 30
0.0
 11
506.500003
 21
264.5
 31
0.0
  0
ENDBLK
  5
535
100
AcDbEntity
  8
0
100
AcDbBlockEnd
  0
BLOCK
  5
538
100
AcDbEntity
  8
0
370
     9
  6
Continuous
 62
     7
100
AcDbBlockBegin
  2
*G26
 70
     0
 10
0.0
 20
0.0
 30
0.0
  3
*G26
  1

  0
LINE
  5
539
100
AcDbEntity
  8
1031
370
     9
  6
Continuous
 62
     7
100
AcDbLine
 10
526.999997
 20
265.303844
 30
0.0
 11
530.0
 21
264.5
 31
0.0
  0
LINE
  5
53A
100
AcDbEntity
  8
1031
370
     9
  6
Continuous
 62
     7
100
AcDbLine
 10
530.0
 20
264.5
 30
0.0
 11
526.999997
 21
263.696156
 31
0.0
  0
LINE
  5
53B
100
AcDbEntity
  8
1031
370
     9
  6
Continuous
 62
     7
100
AcDbLine
 10
530.0
 20
264.5
 30
0.0
 11
526.999997
 21
264.5
 31
0.0
  0
ENDBLK
  5
53C
100
AcDbEntity
  8
0
100
AcDbBlockEnd
  0
ENDSEC
  0
SECTION
  2
ENTITIES
  0
INSERT
  5
44
100
AcDbEntity
  8
0
370
     9
  6
Continuous
 62
     7
100
AcDbBlockReference
  2
*G0
 10
0.0
 20
0.0
 30
0.0
  0
LINE
  5
45
100
AcDbEntity
  8
1031
370
    30
  6
Continuous
 62
     7
100
AcDbLine
 10
432.0
 20
397.0
 30
0.0
 11
266.0
 21
397.0
 31
0.0
  0
LINE
  5
46
100
AcDbEntity
  8
1031
370
    30
  6
Continuous
 62
     7
100
AcDbLine
 10
266.0
 20
282.0
 30
0.0
 11
432.0
 21
282.0
 31
0.0
  0
LINE
  5
47
100
AcDbEntity
  8
1031
370
    30
  6
Continuous
 62
     7
100
AcDbLine
 10
426.0
 20
297.0
 30
0.0
 11
272.0
 21
297.0
 31
0.0
  0
LINE
  5
48
100
AcDbEntity
  8
1031
370
    30
  6
Continuous
 62
     7
100
AcDbLine
 10
426.0
 20
282.0
 30
0.0
 11
426.0
 21
397.0
 31
0.0
  0
LINE
  5
49
100
AcDbEntity
  8
1031
370
    30
  6
Continuous
 62
     7
100
AcDbLine
 10
272.0
 20
282.0
 30
0.0
 11
272.0
 21
397.0
 31
0.0
  0
LINE
  5
4A
100
AcDbEntity
  8
1031
370
    30
  6
Continuous
 62
     7
100
AcDbLine
 10
432.0
 20
375.35
 30
0.0
 11
430.0
 21
375.35
 31
0.0
  0
LINE
  5
4B
100
AcDbEntity
  8
1031
370
    30
  6
Continuous
 62
     7
100
AcDbLine
 10
432.0
 20
378.65
 30
0.0
 11
430.0
 21
378.65
 31
0.0
  0
LINE
  5
4C
100
AcDbEntity
  8
1031
370
    30
  6
Continuous
 62
     7
100
AcDbLine
 10
432.0
 20
375.35
 30
0.0
 11
433.0
 21
374.35
 31
0.0
  0
LINE
  5
4D
100
AcDbEntity
  8
1031
370
    30
  6
Continuous
 62
     7
100
AcDbLine
 10
432.0
 20
378.65
 30
0.0
 11
433.0
 21
379.65
 31
0.0
  0
ARC
  5
4E
100
AcDbEntity
  8
1031
370
    30
  6
Continuous
 62
     7
100
AcDbCircle
 10
430.0
 20
377.0
 30
0.0
 40
1.65
100
AcDbArc
 50
90.0
 51
-90.0
  0
LINE
  5
4F
100
AcDbEntity
  8
1031
370
    30
  6
Continuous
 62
     7
100
AcDbLine
 10
266.0
 20
378.65
 30
0.0
 11
268.0
 21
378.65
 31
0.0
  0
LINE
  5
50
100
AcDbEntity
  8
1031
370
    30
  6
Continuous
 62
     7
100
AcDbLine
 10
266.0
 20
375.35
 30
0.0
 11
268.0
 21
375.35
 31
0.0
  0
LINE
  5
51
100
AcDbEntity
  8
1031
370
    30
  6
Continuous
 62
     7
100
AcDbLine
 10
266.0
 20
378.65
 30
0.0
 11
265.0
 21
379.65
 31
0.0
  0
LINE
  5
52
100
AcDbEntity
  8
1031
370
    30
  6
Continuous
 62
     7
100
AcDbLine
 10
266.0
 20
375.35
 30
0.0
 11
265.0
 21
374.35
 31
0.0
  0
ARC
  5
53
100
AcDbEntity
  8
1031
370
    30
  6
Continuous
 62
     7
100
AcDbCircle
 10
268.0
 20
377.0
 30
0.0
 40
1.65
100
AcDbArc
 50
-90.0
 51
90.0
  0
LINE
  5
54
100
AcDbEntity
  8
1031
370
    30
  6
Continuous
 62
     7
100
AcDbLine
 10
266.0
 20
303.65
 30
0.0
 11
268.0
 21
303.65
 31
0.0
  0
LINE
  5
55
100
AcDbEntity
  8
1031
370
    30
  6
Continuous
 62
     7
100
AcDbLine
 10
266.0
 20
300.35
 30
0.0
 11
268.0
 21
300.35
 31
0.0
  0
LINE
  5
56
100
AcDbEntity
  8
1031
370
    30
  6
Continuous
 62
     7
100
AcDbLine
 10
266.0
 20
303.65
 30
0.0
 11
265.0
 21
304.65
 31
0.0
  0
LINE
  5
57
100
AcDbEntity
  8
1031
370
    30
  6
Continuous
 62
     7
100
AcDbLine
 10
266.0
 20
300.35
 30
0.0
 11
265.0
 21
299.35
 31
0.0
  0
ARC
  5
58
100
AcDbEntity
  8
1031
370
    30
  6
Continuous
 62
     7
100
AcDbCircle
 10
268.0
 20
302.0
 30
0.0
 40
1.65
100
AcDbArc
 50
-90.0
 51
90.0
  0
LINE
  5
59
100
AcDbEntity
  8
1031
370
    30
  6
Continuous
 62
     7
100
AcDbLine
 10
432.0
 20
300.35
 30
0.0
 11
430.0
 21
300.35
 31
0.0
  0
LINE
  5
5A
100
AcDbEntity
  8
1031
370
    30
  6
Continuous
 62
     7
100
AcDbLine
 10
432.0
 20
303.65
 30
0.0
 11
430.0
 21
303.65
 31
0.0
  0
LINE
  5
5B
100
AcDbEntity
  8
1031
370
    30
  6
Continuous
 62
     7
100
AcDbLine
 10
432.0
 20
300.35
 30
0.0
 11
433.0
 21
299.35
 31
0.0
  0
LINE
  5
5C
100
AcDbEntity
  8
1031
370
    30
  6
Continuous
 62
     7
100
AcDbLine
 10
432.0
 20
303.65
 30
0.0
 11
433.0
 21
304.65
 31
0.0
  0
ARC
  5
5D
100
AcDbEntity
  8
1031
370
    30
  6
Continuous
 62
     7
100
AcDbCircle
 10
430.0
 20
302.0
 30
0.0
 40
1.65
100
AcDbArc
 50
90.0
 51
-90.0
  0
LINE
  5
5E
100
AcDbEntity
  8
1031
370
    30
  6
Continuous
 62
     7
100
AcDbLine
 10
265.0
 20
396.0
 30
0.0
 11
265.0
 21
379.65
 31
0.0
  0
LINE
  5
5F
100
AcDbEntity
  8
1031
370
    30
  6
Continuous
 62
     7
100
AcDbLine
 10
265.0
 20
374.35
 30
0.0
 11
265.0
 21
304.65
 31
0.0
  0
LINE
  5
60
100
AcDbEntity
  8
1031
370
    30
  6
Continuous
 62
     7
100
AcDbLine
 10
265.0
 20
299.35
 30
0.0
 11
265.0
 21
283.0
 31
0.0
  0
LINE
  5
61
100
AcDbEntity
  8
1031
370
    30
  6
Continuous
 62
     7
100
AcDbLine
 10
433.0
 20
283.0
 30
0.0
 11
433.0
 21
299.35
 31
0.0
  0
LINE
  5
62
100
AcDbEntity
  8
1031
370
    30
  6
Continuous
 62
     7
100
AcDbLine
 10
433.0
 20
304.65
 30
0.0
 11
433.0
 21
374.35
 31
0.0
  0
LINE
  5
63
100
AcDbEntity
  8
1031
370
    30
  6
Continuous
 62
     7
100
AcDbLine
 10
433.0
 20
379.65
 30
0.0
 11
433.0
 21
396.0
 31
0.0
  0
LINE
  5
64
100
AcDbEntity
  8
1031
370
    30
  6
Continuous
 62
     7
100
AcDbLine
 10
266.0
 20
397.0
 30
0.0
 11
265.0
 21
396.0
 31
0.0
  0
LINE
  5
65
100
AcDbEntity
  8
1031
370
    30
  6
Continuous
 62
     7
100
AcDbLine
 10
266.0
 20
282.0
 30
0.0
 11
265.0
 21
283.0
 31
0.0
  0
LINE
  5
66
100
AcDbEntity
  8
1031
370
    30
  6
Continuous
 62
     7
100
AcDbLine
 10
432.0
 20
282.0
 30
0.0
 11
433.0
 21
283.0
 31
0.0
  0
LINE
  5
67
100
AcDbEntity
  8
1031
370
    30
  6
Continuous
 62
     7
100
AcDbLine
 10
432.0
 20
397.0
 30
0.0
 11
433.0
 21
396.0
 31
0.0
  0
LINE
  5
68
100
AcDbEntity
  8
1031
370
    30
  6
Continuous
 62
     7
100
AcDbLine
 10
287.5
 20
284.0
 30
0.0
 11
297.5
 21
284.0
 31
0.0
  0
LINE
  5
69
100
AcDbEntity
  8
1031
370
    30
  6
Continuous
 62
     7
100
AcDbLine
 10
297.5
 20
294.0
 30
0.0
 11
287.5
 21
294.0
 31
0.0
  0
LINE
  5
6A
100
AcDbEntity
  8
1031
370
    30
  6
Continuous
 62
     7
100
AcDbLine
 10
287.5
 20
294.0
 30
0.0
 11
287.5
 21
284.0
 31
0.0
  0
LINE
  5
6B
100
AcDbEntity
  8
1031
370
    30
  6
Continuous
 62
     7
100
AcDbLine
 10
297.5
 20
284.0
 30
0.0
 11
297.5
 21
294.0
 31
0.0
  0
CIRCLE
  5
6C
100
AcDbEntity
  8
1031
370
    30
  6
Continuous
 62
     7
100
AcDbCircle
 10
292.5
 20
289.0
 30
0.0
 40
3.5
  0
LINE
  5
6D
100
AcDbEntity
  8
1031
370
    30
  6
Continuous
 62
     7
100
AcDbLine
 10
275.0
 20
284.0
 30
0.0
 11
285.0
 21
284.0
 31
0.0
  0
LINE
  5
6E
100
AcDbEntity
  8
1031
370
    30
  6
Continuous
 62
     7
100
AcDbLine
 10
285.0
 20
294.0
 30
0.0
 11
275.0
 21
294.0
 31
0.0
  0
LINE
  5
6F
100
AcDbEntity
  8
1031
370
    30
  6
Continuous
 62
     7
100
AcDbLine
 10
275.0
 20
294.0
 30
0.0
 11
275.0
 21
284.0
 31
0.0
  0
LINE
  5
70
100
AcDbEntity
  8
1031
370
    30
  6
Continuous
 62
     7
100
AcDbLine
 10
285.0
 20
284.0
 30
0.0
 11
285.0
 21
294.0
 31
0.0
  0
CIRCLE
  5
71
100
AcDbEntity
  8
1031
370
    30
  6
Continuous
 62
     7
100
AcDbCircle
 10
280.0
 20
289.0
 30
0.0
 40
3.5
  0
LINE
  5
72
100
AcDbEntity
  8
1031
370
    30
  6
Continuous
 62
     7
100
AcDbLine
 10
279.0
 20
351.0
 30
0.0
 11
279.0
 21
345.0
 31
0.0
  0
LINE
  5
73
100
AcDbEntity
  8
1031
370
    30
  6
Continuous
 62
     7
100
AcDbLine
 10
301.12
 20
345.0
 30
0.0
 11
301.12
 21
351.0
 31
0.0
  0
LINE
  5
74
100
AcDbEntity
  8
1031
370
    30
  6
Continuous
 62
     7
100
AcDbLine
 10
301.12
 20
351.0
 30
0.0
 11
279.0
 21
351.0
 31
0.0
  0
LINE
  5
75
100
AcDbEntity
  8
1031
370
    30
  6
Continuous
 62
     7
100
AcDbLine
 10
279.0
 20
345.0
 30
0.0
 11
301.12
 21
345.0
 31
0.0
  0
CIRCLE
  5
76
100
AcDbEntity
  8
1031
370
    30
  6
Continuous
 62
     7
100
AcDbCircle
 10
282.5
 20
348.0
 30
0.0
 40
1.5
  0
CIRCLE
  5
77
100
AcDbEntity
  8
1031
370
    30
  6
Continuous
 62
     7
100
AcDbCircle
 10
282.5
 20
348.0
 30
0.0
 40
2.25
  0
LINE
  5
78
100
AcDbEntity
  8
1031
370
    30
  6
Continuous
 62
     7
100
AcDbLine
 10
279.0
 20
343.0
 30
0.0
 11
279.0
 21
337.0
 31
0.0
  0
LINE
  5
79
100
AcDbEntity
  8
1031
370
    30
  6
Continuous
 62
     7
100
AcDbLine
 10
301.12
 20
337.0
 30
0.0
 11
301.12
 21
343.0
 31
0.0
  0
LINE
  5
7A
100
AcDbEntity
  8
1031
370
    30
  6
Continuous
 62
     7
100
AcDbLine
 10
301.12
 20
343.0
 30
0.0
 11
279.0
 21
343.0
 31
0.0
  0
LINE
  5
7B
100
AcDbEntity
  8
1031
370
    30
  6
Continuous
 62
     7
100
AcDbLine
 10
279.0
 20
337.0
 30
0.0
 11
301.12
 21
337.0
 31
0.0
  0
CIRCLE
  5
7C
100
AcDbEntity
  8
1031
370
    30
  6
Continuous
 62
     7
100
AcDbCircle
 10
282.5
 20
340.0
 30
0.0
 40
1.5
  0
CIRCLE
  5
7D
100
AcDbEntity
  8
1031
370
    30
  6
Continuous
 62
     7
100
AcDbCircle
 10
282.5
 20
340.0
 30
0.0
 40
2.25
  0
LINE
  5
7E
100
AcDbEntity
  8
1031
370
    30
  6
Continuous
 62
     7
100
AcDbLine
 10
407.83
 20
299.0
 30
0.0
 11
407.83
 21
304.5
 31
0.0
  0
LINE
  5
7F
100
AcDbEntity
  8
1031
370
    30
  6
Continuous
 62
     7
100
AcDbLine
 10
393.71
 20
304.5
 30
0.0
 11
393.71
 21
299.0
 31
0.0
  0
LINE
  5
80
100
AcDbEntity
  8
1031
370
    30
  6
Continuous
 62
     7
100
AcDbLine
 10
393.71
 20
299.0
 30
0.0
 11
407.83
 21
299.0
 31
0.0
  0
LINE
  5
81
100
AcDbEntity
  8
1031
370
    30
  6
Continuous
 62
     7
100
AcDbLine
 10
407.83
 20
304.5
 30
0.0
 11
393.71
 21
304.5
 31
0.0
  0
LINE
  5
82
100
AcDbEntity
  8
1031
370
    30
  6
Continuous
 62
     7
100
AcDbLine
 10
346.87
 20
299.0
 30
0.0
 11
346.87
 21
304.5
 31
0.0
  0
LINE
  5
83
100
AcDbEntity
  8
1031
370
    30
  6
Continuous
 62
     7
100
AcDbLine
 10
340.37
 20
304.5
 30
0.0
 11
340.37
 21
299.0
 31
0.0
  0
LINE
  5
84
100
AcDbEntity
  8
1031
370
    30
  6
Continuous
 62
     7
100
AcDbLine
 10
340.37
 20
299.0
 30
0.0
 11
346.87
 21
299.0
 31
0.0
  0
LINE
  5
85
100
AcDbEntity
  8
1031
370
    30
  6
Continuous
 62
     7
100
AcDbLine
 10
346.87
 20
304.5
 30
0.0
 11
340.37
 21
304.5
 31
0.0
  0
LINE
  5
86
100
AcDbEntity
  8
1031
370
    30
  6
Continuous
 62
     7
100
AcDbLine
 10
339.25
 20
299.0
 30
0.0
 11
339.25
 21
304.5
 31
0.0
  0
LINE
  5
87
100
AcDbEntity
  8
1031
370
    30
  6
Continuous
 62
     7
100
AcDbLine
 10
332.75
 20
304.5
 30
0.0
 11
332.75
 21
299.0
 31
0.0
  0
LINE
  5
88
100
AcDbEntity
  8
1031
370
    30
  6
Continuous
 62
     7
100
AcDbLine
 10
331.63
 20
299.0
 30
0.0
 11
331.63
 21
304.5
 31
0.0
  0
LINE
  5
89
100
AcDbEntity
  8
1031
370
    30
  6
Continuous
 62
     7
100
AcDbLine
 10
332.75
 20
299.0
 30
0.0
 11
339.25
 21
299.0
 31
0.0
  0
LINE
  5
8A
100
AcDbEntity
  8
1031
370
    30
  6
Continuous
 62
     7
100
AcDbLine
 10
339.25
 20
304.5
 30
0.0
 11
332.75
 21
304.5
 31
0.0
  0
LINE
  5
8B
100
AcDbEntity
  8
1031
370
    30
  6
Continuous
 62
     7
100
AcDbLine
 10
325.13
 20
304.5
 30
0.0
 11
325.13
 21
299.0
 31
0.0
  0
LINE
  5
8C
100
AcDbEntity
  8
1031
370
    30
  6
Continuous
 62
     7
100
AcDbLine
 10
354.49
 20
305.5
 30
0.0
 11
354.49
 21
311.0
 31
0.0
  0
LINE
  5
8D
100
AcDbEntity
  8
1031
370
    30
  6
Continuous
 62
     7
100
AcDbLine
 10
325.13
 20
299.0
 30
0.0
 11
331.63
 21
299.0
 31
0.0
  0
LINE
  5
8E
100
AcDbEntity
  8
1031
370
    30
  6
Continuous
 62
     7
100
AcDbLine
 10
331.63
 20
304.5
 30
0.0
 11
325.13
 21
304.5
 31
0.0
  0
LINE
  5
8F
100
AcDbEntity
  8
1031
370
    30
  6
Continuous
 62
     7
100
AcDbLine
 10
325.13
 20
311.0
 30
0.0
 11
325.13
 21
305.5
 31
0.0
  0
LINE
  5
90
100
AcDbEntity
  8
1031
370
    30
  6
Continuous
 62
     7
100
AcDbLine
 10
354.49
 20
311.0
 30
0.0
 11
325.13
 21
311.0
 31
0.0
  0
LINE
  5
91
100
AcDbEntity
  8
1031
370
    30
  6
Continuous
 62
     7
100
AcDbLine
 10
325.13
 20
305.5
 30
0.0
 11
354.49
 21
305.5
 31
0.0
  0
LINE
  5
92
100
AcDbEntity
  8
1031
370
    30
  6
Continuous
 62
     7
100
AcDbLine
 10
287.5
 20
299.0
 30
0.0
 11
287.5
 21
304.5
 31
0.0
  0
LINE
  5
93
100
AcDbEntity
  8
1031
370
    30
  6
Continuous
 62
     7
100
AcDbLine
 10
297.5
 20
299.0
 30
0.0
 11
297.5
 21
304.5
 31
0.0
  0
LINE
  5
94
100
AcDbEntity
  8
1031
370
    30
  6
Continuous
 62
     7
100
AcDbLine
 10
297.5
 20
299.0
 30
0.0
 11
287.5
 21
299.0
 31
0.0
  0
LINE
  5
95
100
AcDbEntity
  8
1031
370
    30
  6
Continuous
 62
     7
100
AcDbLine
 10
297.5
 20
304.5
 30
0.0
 11
287.5
 21
304.5
 31
0.0
  0
LINE
  5
96
100
AcDbEntity
  8
1031
370
    30
  6
Continuous
 62
     7
100
AcDbLine
 10
275.0
 20
299.0
 30
0.0
 11
275.0
 21
304.5
 31
0.0
  0
LINE
  5
97
100
AcDbEntity
  8
1031
370
    30
  6
Continuous
 62
     7
100
AcDbLine
 10
285.0
 20
299.0
 30
0.0
 11
285.0
 21
304.5
 31
0.0
  0
LINE
  5
98
100
AcDbEntity
  8
1031
370
    30
  6
Continuous
 62
     7
100
AcDbLine
 10
285.0
 20
299.0
 30
0.0
 11
275.0
 21
299.0
 31
0.0
  0
LINE
  5
99
100
AcDbEntity
  8
1031
370
    30
  6
Continuous
 62
     7
100
AcDbLine
 10
285.0
 20
304.5
 30
0.0
 11
275.0
 21
304.5
 31
0.0
  0
LINE
  5
9A
100
AcDbEntity
  8
1031
370
    30
  6
Continuous
 62
     7
100
AcDbLine
 10
351.25
 20
363.6
 30
0.0
 11
351.25
 21
378.4
 31
0.0
  0
LINE
  5
9B
100
AcDbEntity
  8
1031
370
    30
  6
Continuous
 62
     7
100
AcDbLine
 10
351.25
 20
378.4
 30
0.0
 11
288.75
 21
378.4
 31
0.0
  0
LINE
  5
9C
100
AcDbEntity
  8
1031
370
    30
  6
Continuous
 62
     7
100
AcDbLine
 10
288.75
 20
363.6
 30
0.0
 11
351.25
 21
363.6
 31
0.0
  0
LINE
  5
9D
100
AcDbEntity
  8
1031
370
    30
  6
Continuous
 62
     7
100
AcDbLine
 10
288.75
 20
378.4
 30
0.0
 11
288.75
 21
363.6
 31
0.0
  0
LINE
  5
9E
100
AcDbEntity
  8
1031
370
    30
  6
Continuous
 62
     7
100
AcDbLine
 10
503.5
 20
397.0
 30
0.0
 11
503.5
 21
297.0
 31
0.0
  0
LINE
  5
9F
100
AcDbEntity
  8
1031
370
    30
  6
Continuous
 62
     7
100
AcDbLine
 10
530.0
 20
397.0
 30
0.0
 11
530.0
 21
282.0
 31
0.0
  0
LINE
  5
A0
100
AcDbEntity
  8
1031
370
    30
  6
Continuous
 62
     7
100
AcDbLine
 10
503.5
 20
397.0
 30
0.0
 11
530.0
 21
397.0
 31
0.0
  0
LINE
  5
A1
100
AcDbEntity
  8
1031
370
    30
  6
Continuous
 62
     7
100
AcDbLine
 10
529.2
 20
397.0
 30
0.0
 11
529.2
 21
282.0
 31
0.0
  0
LINE
  5
A2
100
AcDbEntity
  8
1031
370
    30
  6
Continuous
 62
     7
100
AcDbLine
 10
513.4
 20
282.0
 30
0.0
 11
530.0
 21
282.0
 31
0.0
  0
LINE
  5
A3
100
AcDbEntity
  8
1031
370
    30
  6
Continuous
 62
     7
100
AcDbLine
 10
526.7
 20
294.6
 30
0.0
 11
525.9
 21
294.6
 31
0.0
  0
LINE
  5
A4
100
AcDbEntity
  8
1031
370
    30
  6
Continuous
 62
     7
100
AcDbLine
 10
525.9
 20
294.6
 30
0.0
 11
525.9
 21
293.8
 31
0.0
  0
LINE
  5
A5
100
AcDbEntity
  8
1031
370
    30
  6
Continuous
 62
     7
100
AcDbLine
 10
525.1
 20
293.8
 30
0.0
 11
525.1
 21
294.6
 31
0.0
  0
LINE
  5
A6
100
AcDbEntity
  8
1031
370
    30
  6
Continuous
 62
     7
100
AcDbLine
 10
525.1
 20
294.6
 30
0.0
 11
524.3
 21
294.6
 31
0.0
  0
LINE
  5
A7
100
AcDbEntity
  8
1031
370
    30
  6
Continuous
 62
     7
100
AcDbLine
 10
526.7
 20
295.4
 30
0.0
 11
525.9
 21
295.4
 31
0.0
  0
LINE
  5
A8
100
AcDbEntity
  8
1031
370
    30
  6
Continuous
 62
     7
100
AcDbLine
 10
525.9
 20
295.4
 30
0.0
 11
525.9
 21
296.2
 31
0.0
  0
LINE
  5
A9
100
AcDbEntity
  8
1031
370
    30
  6
Continuous
 62
     7
100
AcDbLine
 10
525.1
 20
296.2
 30
0.0
 11
525.1
 21
295.4
 31
0.0
  0
LINE
  5
AA
100
AcDbEntity
  8
1031
370
    30
  6
Continuous
 62
     7
100
AcDbLine
 10
525.1
 20
295.4
 30
0.0
 11
524.3
 21
295.4
 31
0.0
  0
LINE
  5
AB
100
AcDbEntity
  8
1031
370
    30
  6
Continuous
 62
     7
100
AcDbLine
 10
526.7
 20
383.6
 30
0.0
 11
525.9
 21
383.6
 31
0.0
  0
LINE
  5
AC
100
AcDbEntity
  8
1031
370
    30
  6
Continuous
 62
     7
100
AcDbLine
 10
525.9
 20
383.6
 30
0.0
 11
525.9
 21
382.8
 31
0.0
  0
LINE
  5
AD
100
AcDbEntity
  8
1031
370
    30
  6
Continuous
 62
     7
100
AcDbLine
 10
525.1
 20
382.8
 30
0.0
 11
525.1
 21
383.6
 31
0.0
  0
LINE
  5
AE
100
AcDbEntity
  8
1031
370
    30
  6
Continuous
 62
     7
100
AcDbLine
 10
525.1
 20
383.6
 30
0.0
 11
524.3
 21
383.6
 31
0.0
  0
LINE
  5
AF
100
AcDbEntity
  8
1031
370
    30
  6
Continuous
 62
     7
100
AcDbLine
 10
526.7
 20
384.4
 30
0.0
 11
525.9
 21
384.4
 31
0.0
  0
LINE
  5
B0
100
AcDbEntity
  8
1031
370
    30
  6
Continuous
 62
     7
100
AcDbLine
 10
525.9
 20
384.4
 30
0.0
 11
525.9
 21
385.2
 31
0.0
  0
LINE
  5
B1
100
AcDbEntity
  8
1031
370
    30
  6
Continuous
 62
     7
100
AcDbLine
 10
525.1
 20
385.2
 30
0.0
 11
525.1
 21
384.4
 31
0.0
  0
LINE
  5
B2
100
AcDbEntity
  8
1031
370
    30
  6
Continuous
 62
     7
100
AcDbLine
 10
525.1
 20
384.4
 30
0.0
 11
524.3
 21
384.4
 31
0.0
  0
LINE
  5
B3
100
AcDbEntity
  8
1031
370
    30
  6
Continuous
 62
     7
100
AcDbLine
 10
529.2
 20
396.0
 30
0.0
 11
530.0
 21
396.0
 31
0.0
  0
LINE
  5
B4
100
AcDbEntity
  8
1031
370
    30
  6
Continuous
 62
     7
100
AcDbLine
 10
529.2
 20
283.0
 30
0.0
 11
530.0
 21
283.0
 31
0.0
  0
LINE
  5
B5
100
AcDbEntity
  8
1031
370
    30
  6
Continuous
 62
     7
100
AcDbLine
 10
529.2
 20
299.35
 30
0.0
 11
530.0
 21
299.35
 31
0.0
  0
LINE
  5
B6
100
AcDbEntity
  8
1031
370
    30
  6
Continuous
 62
     7
100
AcDbLine
 10
529.2
 20
304.65
 30
0.0
 11
530.0
 21
304.65
 31
0.0
  0
LINE
  5
B7
100
AcDbEntity
  8
1031
370
    30
  6
Continuous
 62
     7
100
AcDbLine
 10
529.2
 20
303.65
 30
0.0
 11
530.0
 21
303.65
 31
0.0
  0
LINE
  5
B8
100
AcDbEntity
  8
1031
370
    30
  6
Continuous
 62
     7
100
AcDbLine
 10
529.2
 20
300.35
 30
0.0
 11
530.0
 21
300.35
 31
0.0
  0
LINE
  5
B9
100
AcDbEntity
  8
1031
370
    30
  6
Continuous
 62
     7
100
AcDbLine
 10
529.2
 20
374.35
 30
0.0
 11
530.0
 21
374.35
 31
0.0
  0
LINE
  5
BA
100
AcDbEntity
  8
1031
370
    30
  6
Continuous
 62
     7
100
AcDbLine
 10
281.2
 20
324.3
 30
0.0
 11
306.2
 21
324.3
 31
0.0
  0
LINE
  5
BB
100
AcDbEntity
  8
1031
370
    30
  6
Continuous
 62
     7
100
AcDbLine
 10
306.2
 20
327.3
 30
0.0
 11
281.2
 21
327.3
 31
0.0
  0
LINE
  5
BC
100
AcDbEntity
  8
1031
370
    30
  6
Continuous
 62
     7
100
AcDbLine
 10
281.2
 20
327.3
 30
0.0
 11
281.2
 21
324.3
 31
0.0
  0
LINE
  5
BD
100
AcDbEntity
  8
1031
370
    30
  6
Continuous
 62
     7
100
AcDbLine
 10
306.2
 20
324.3
 30
0.0
 11
306.2
 21
327.3
 31
0.0
  0
LINE
  5
BE
100
AcDbEntity
  8
1031
370
    30
  6
Continuous
 62
     7
100
AcDbLine
 10
279.2
 20
322.3
 30
0.0
 11
308.2
 21
322.3
 31
0.0
  0
LINE
  5
BF
100
AcDbEntity
  8
1031
370
    30
  6
Continuous
 62
     7
100
AcDbLine
 10
279.2
 20
322.3
 30
0.0
 11
279.2
 21
331.3
 31
0.0
  0
LINE
  5
C0
100
AcDbEntity
  8
1031
370
    30
  6
Continuous
 62
     7
100
AcDbLine
 10
308.2
 20
322.3
 30
0.0
 11
308.2
 21
331.3
 31
0.0
  0
LINE
  5
C1
100
AcDbEntity
  8
1031
370
    30
  6
Continuous
 62
     7
100
AcDbLine
 10
279.2
 20
331.3
 30
0.0
 11
284.2
 21
331.3
 31
0.0
  0
LINE
  5
C2
100
AcDbEntity
  8
1031
370
    30
  6
Continuous
 62
     7
100
AcDbLine
 10
308.179796
 20
331.3
 30
0.0
 11
303.2
 21
331.3
 31
0.0
  0
LINE
  5
C3
100
AcDbEntity
  8
1031
370
    30
  6
Continuous
 62
     7
100
AcDbLine
 10
529.2
 20
375.35
 30
0.0
 11
530.0
 21
375.35
 31
0.0
  0
LINE
  5
C4
100
AcDbEntity
  8
1031
370
    30
  6
Continuous
 62
     7
100
AcDbLine
 10
529.2
 20
378.65
 30
0.0
 11
530.0
 21
378.65
 31
0.0
  0
LINE
  5
C5
100
AcDbEntity
  8
1031
370
    30
  6
Continuous
 62
     7
100
AcDbLine
 10
529.2
 20
379.65
 30
0.0
 11
530.0
 21
379.65
 31
0.0
  0
LINE
  5
C6
100
AcDbEntity
  8
1031
370
    30
  6
Continuous
 62
     7
100
AcDbLine
 10
415.61
 20
304.5
 30
0.0
 11
415.61
 21
299.0
 31
0.0
  0
LINE
  5
C7
100
AcDbEntity
  8
1031
370
    30
  6
Continuous
 62
     7
100
AcDbLine
 10
416.61
 20
304.5
 30
0.0
 11
416.61
 21
299.0
 31
0.0
  0
LINE
  5
C8
100
AcDbEntity
  8
1031
370
    30
  6
Continuous
 62
     7
100
AcDbLine
 10
423.23
 20
304.5
 30
0.0
 11
423.23
 21
299.0
 31
0.0
  0
LINE
  5
C9
100
AcDbEntity
  8
1031
370
    30
  6
Continuous
 62
     7
100
AcDbLine
 10
416.61
 20
304.5
 30
0.0
 11
423.23
 21
304.5
 31
0.0
  0
LINE
  5
CA
100
AcDbEntity
  8
1031
370
    30
  6
Continuous
 62
     7
100
AcDbLine
 10
416.61
 20
299.0
 30
0.0
 11
423.23
 21
299.0
 31
0.0
  0
LINE
  5
CB
100
AcDbEntity
  8
1031
370
    30
  6
Continuous
 62
     7
100
AcDbLine
 10
423.23
 20
311.0
 30
0.0
 11
423.23
 21
305.5
 31
0.0
  0
LINE
  5
CC
100
AcDbEntity
  8
1031
370
    30
  6
Continuous
 62
     7
100
AcDbLine
 10
408.99
 20
304.5
 30
0.0
 11
415.61
 21
304.5
 31
0.0
  0
LINE
  5
CD
100
AcDbEntity
  8
1031
370
    30
  6
Continuous
 62
     7
100
AcDbLine
 10
408.99
 20
305.5
 30
0.0
 11
408.99
 21
311.0
 31
0.0
  0
LINE
  5
CE
100
AcDbEntity
  8
1031
370
    30
  6
Continuous
 62
     7
100
AcDbLine
 10
408.99
 20
311.0
 30
0.0
 11
423.23
 21
311.0
 31
0.0
  0
LINE
  5
CF
100
AcDbEntity
  8
1031
370
    30
  6
Continuous
 62
     7
100
AcDbLine
 10
408.99
 20
305.5
 30
0.0
 11
423.23
 21
305.5
 31
0.0
  0
LINE
  5
D0
100
AcDbEntity
  8
1031
370
    30
  6
Continuous
 62
     7
100
AcDbLine
 10
408.99
 20
304.5
 30
0.0
 11
408.99
 21
299.0
 31
0.0
  0
LINE
  5
D1
100
AcDbEntity
  8
1031
370
    30
  6
Continuous
 62
     7
100
AcDbLine
 10
408.99
 20
299.0
 30
0.0
 11
415.61
 21
299.0
 31
0.0
  0
LINE
  5
D2
100
AcDbEntity
  8
1031
370
    30
  6
Continuous
 62
     7
100
AcDbLine
 10
355.65
 20
304.5
 30
0.0
 11
362.27
 21
304.5
 31
0.0
  0
LINE
  5
D3
100
AcDbEntity
  8
1031
370
    30
  6
Continuous
 62
     7
100
AcDbLine
 10
363.27
 20
304.5
 30
0.0
 11
369.89
 21
304.5
 31
0.0
  0
LINE
  5
D4
100
AcDbEntity
  8
1031
370
    30
  6
Continuous
 62
     7
100
AcDbLine
 10
377.51
 20
305.5
 30
0.0
 11
377.51
 21
311.0
 31
0.0
  0
LINE
  5
D5
100
AcDbEntity
  8
1031
370
    30
  6
Continuous
 62
     7
100
AcDbLine
 10
355.65
 20
311.0
 30
0.0
 11
355.65
 21
305.5
 31
0.0
  0
LINE
  5
D6
100
AcDbEntity
  8
1031
370
    30
  6
Continuous
 62
     7
100
AcDbLine
 10
355.65
 20
311.0
 30
0.0
 11
377.51
 21
311.0
 31
0.0
  0
LINE
  5
D7
100
AcDbEntity
  8
1031
370
    30
  6
Continuous
 62
     7
100
AcDbLine
 10
355.65
 20
305.5
 30
0.0
 11
377.51
 21
305.5
 31
0.0
  0
LINE
  5
D8
100
AcDbEntity
  8
1031
370
    30
  6
Continuous
 62
     7
100
AcDbLine
 10
355.65
 20
304.5
 30
0.0
 11
355.65
 21
299.0
 31
0.0
  0
LINE
  5
D9
100
AcDbEntity
  8
1031
370
    30
  6
Continuous
 62
     7
100
AcDbLine
 10
362.27
 20
304.5
 30
0.0
 11
362.27
 21
299.0
 31
0.0
  0
LINE
  5
DA
100
AcDbEntity
  8
1031
370
    30
  6
Continuous
 62
     7
100
AcDbLine
 10
355.65
 20
299.0
 30
0.0
 11
362.27
 21
299.0
 31
0.0
  0
LINE
  5
DB
100
AcDbEntity
  8
1031
370
    30
  6
Continuous
 62
     7
100
AcDbLine
 10
363.27
 20
304.5
 30
0.0
 11
363.27
 21
299.0
 31
0.0
  0
LINE
  5
DC
100
AcDbEntity
  8
1031
370
    30
  6
Continuous
 62
     7
100
AcDbLine
 10
369.89
 20
304.5
 30
0.0
 11
369.89
 21
299.0
 31
0.0
  0
LINE
  5
DD
100
AcDbEntity
  8
1031
370
    30
  6
Continuous
 62
     7
100
AcDbLine
 10
363.27
 20
299.0
 30
0.0
 11
369.89
 21
299.0
 31
0.0
  0
LINE
  5
DE
100
AcDbEntity
  8
1031
370
    30
  6
Continuous
 62
     7
100
AcDbLine
 10
370.89
 20
304.5
 30
0.0
 11
370.89
 21
299.0
 31
0.0
  0
LINE
  5
DF
100
AcDbEntity
  8
1031
370
    30
  6
Continuous
 62
     7
100
AcDbLine
 10
377.51
 20
304.5
 30
0.0
 11
377.51
 21
299.0
 31
0.0
  0
LINE
  5
E0
100
AcDbEntity
  8
1031
370
    30
  6
Continuous
 62
     7
100
AcDbLine
 10
370.89
 20
304.5
 30
0.0
 11
377.51
 21
304.5
 31
0.0
  0
LINE
  5
E1
100
AcDbEntity
  8
1031
370
    30
  6
Continuous
 62
     7
100
AcDbLine
 10
370.89
 20
299.0
 30
0.0
 11
377.51
 21
299.0
 31
0.0
  0
LINE
  5
E2
100
AcDbEntity
  8
1031
370
    30
  6
Continuous
 62
     7
100
AcDbLine
 10
354.49
 20
299.0
 30
0.0
 11
354.49
 21
304.5
 31
0.0
  0
LINE
  5
E3
100
AcDbEntity
  8
1031
370
    30
  6
Continuous
 62
     7
100
AcDbLine
 10
347.99
 20
304.5
 30
0.0
 11
347.99
 21
299.0
 31
0.0
  0
LINE
  5
E4
100
AcDbEntity
  8
1031
370
    30
  6
Continuous
 62
     7
100
AcDbLine
 10
347.99
 20
299.0
 30
0.0
 11
354.49
 21
299.0
 31
0.0
  0
LINE
  5
E5
100
AcDbEntity
  8
1031
370
    30
  6
Continuous
 62
     7
100
AcDbLine
 10
354.49
 20
304.5
 30
0.0
 11
347.99
 21
304.5
 31
0.0
  0
LINE
  5
E6
100
AcDbEntity
  8
1031
370
    30
  6
Continuous
 62
     7
100
AcDbLine
 10
300.0
 20
299.0
 30
0.0
 11
322.0
 21
299.0
 31
0.0
  0
LINE
  5
E7
100
AcDbEntity
  8
1031
370
    30
  6
Continuous
 62
     7
100
AcDbLine
 10
322.0
 20
299.0
 30
0.0
 11
322.0
 21
304.5
 31
0.0
  0
LINE
  5
E8
100
AcDbEntity
  8
1031
370
    30
  6
Continuous
 62
     7
100
AcDbLine
 10
322.0
 20
304.5
 30
0.0
 11
300.0
 21
304.5
 31
0.0
  0
LINE
  5
E9
100
AcDbEntity
  8
1031
370
    30
  6
Continuous
 62
     7
100
AcDbLine
 10
300.0
 20
304.5
 30
0.0
 11
300.0
 21
299.0
 31
0.0
  0
LINE
  5
EA
100
AcDbEntity
  8
1031
370
    30
  6
Continuous
 62
     7
100
AcDbLine
 10
392.59
 20
299.0
 30
0.0
 11
392.59
 21
304.5
 31
0.0
  0
LINE
  5
EB
100
AcDbEntity
  8
1031
370
    30
  6
Continuous
 62
     7
100
AcDbLine
 10
378.47
 20
304.5
 30
0.0
 11
378.47
 21
299.0
 31
0.0
  0
LINE
  5
EC
100
AcDbEntity
  8
1031
370
    30
  6
Continuous
 62
     7
100
AcDbLine
 10
378.47
 20
299.0
 30
0.0
 11
392.59
 21
299.0
 31
0.0
  0
LINE
  5
ED
100
AcDbEntity
  8
1031
370
    30
  6
Continuous
 62
     7
100
AcDbLine
 10
392.59
 20
304.5
 30
0.0
 11
378.47
 21
304.5
 31
0.0
  0
LINE
  5
EE
100
AcDbEntity
  8
1031
370
    30
  6
Continuous
 62
     7
100
AcDbLine
 10
407.83
 20
305.5
 30
0.0
 11
407.83
 21
311.0
 31
0.0
  0
LINE
  5
EF
100
AcDbEntity
  8
1031
370
    30
  6
Continuous
 62
     7
100
AcDbLine
 10
378.47
 20
311.0
 30
0.0
 11
378.47
 21
305.5
 31
0.0
  0
LINE
  5
F0
100
AcDbEntity
  8
1031
370
    30
  6
Continuous
 62
     7
100
AcDbLine
 10
407.83
 20
311.0
 30
0.0
 11
378.47
 21
311.0
 31
0.0
  0
LINE
  5
F1
100
AcDbEntity
  8
1031
370
    30
  6
Continuous
 62
     7
100
AcDbLine
 10
378.47
 20
305.5
 30
0.0
 11
407.83
 21
305.5
 31
0.0
  0
LINE
  5
F2
100
AcDbEntity
  8
1031
370
    30
  6
Continuous
 62
     7
100
AcDbLine
 10
349.53
 20
282.0
 30
0.0
 11
349.53
 21
283.0
 31
0.0
  0
LINE
  5
F3
100
AcDbEntity
  8
1031
370
    30
  6
Continuous
 62
     7
100
AcDbLine
 10
348.03
 20
282.0
 30
0.0
 11
348.03
 21
296.0
 31
0.0
  0
LINE
  5
F4
100
AcDbEntity
  8
1031
370
    30
  6
Continuous
 62
     7
100
AcDbLine
 10
349.53
 20
282.0
 30
0.0
 11
346.78
 21
282.0
 31
0.0
  0
LINE
  5
F5
100
AcDbEntity
  8
1031
370
    30
  6
Continuous
 62
     7
100
AcDbLine
 10
349.53
 20
296.0
 30
0.0
 11
349.53
 21
295.0
 31
0.0
  0
LINE
  5
F6
100
AcDbEntity
  8
1031
370
    30
  6
Continuous
 62
     7
100
AcDbLine
 10
352.84
 20
288.5
 30
0.0
 11
351.84
 21
288.5
 31
0.0
  0
LINE
  5
F7
100
AcDbEntity
  8
1031
370
    30
  6
Continuous
 62
     7
100
AcDbLine
 10
351.84
 20
288.5
 30
0.0
 11
351.84
 21
287.5
 31
0.0
  0
LINE
  5
F8
100
AcDbEntity
  8
1031
370
    30
  6
Continuous
 62
     7
100
AcDbLine
 10
350.84
 20
287.5
 30
0.0
 11
350.84
 21
288.5
 31
0.0
  0
LINE
  5
F9
100
AcDbEntity
  8
1031
370
    30
  6
Continuous
 62
     7
100
AcDbLine
 10
350.84
 20
288.5
 30
0.0
 11
349.84
 21
288.5
 31
0.0
  0
LINE
  5
FA
100
AcDbEntity
  8
1031
370
    30
  6
Continuous
 62
     7
100
AcDbLine
 10
352.84
 20
289.5
 30
0.0
 11
351.84
 21
289.5
 31
0.0
  0
LINE
  5
FB
100
AcDbEntity
  8
1031
370
    30
  6
Continuous
 62
     7
100
AcDbLine
 10
351.84
 20
289.5
 30
0.0
 11
351.84
 21
290.5
 31
0.0
  0
LINE
  5
FC
100
AcDbEntity
  8
1031
370
    30
  6
Continuous
 62
     7
100
AcDbLine
 10
350.84
 20
290.5
 30
0.0
 11
350.84
 21
289.5
 31
0.0
  0
LINE
  5
FD
100
AcDbEntity
  8
1031
370
    30
  6
Continuous
 62
     7
100
AcDbLine
 10
350.84
 20
289.5
 30
0.0
 11
349.84
 21
289.5
 31
0.0
  0
CIRCLE
  5
FE
100
AcDbEntity
  8
1031
370
    30
  6
Continuous
 62
     7
100
AcDbCircle
 10
351.34
 20
289.0
 30
0.0
 40
2.5
  0
LINE
  5
FF
100
AcDbEntity
  8
1031
370
    30
  6
Continuous
 62
     7
100
AcDbLine
 10
353.15
 20
282.0
 30
0.0
 11
353.15
 21
283.0
 31
0.0
  0
LINE
  5
100
100
AcDbEntity
  8
1031
370
    30
  6
Continuous
 62
     7
100
AcDbLine
 10
357.15
 20
282.0
 30
0.0
 11
357.15
 21
283.0
 31
0.0
  0
LINE
  5
101
100
AcDbEntity
  8
1031
370
    30
  6
Continuous
 62
     7
100
AcDbLine
 10
355.65
 20
282.0
 30
0.0
 11
355.65
 21
296.0
 31
0.0
  0
LINE
  5
102
100
AcDbEntity
  8
1031
370
    30
  6
Continuous
 62
     7
100
AcDbLine
 10
354.65
 20
282.0
 30
0.0
 11
354.65
 21
296.0
 31
0.0
  0
LINE
  5
103
100
AcDbEntity
  8
1031
370
    30
  6
Continuous
 62
     7
100
AcDbLine
 10
357.15
 20
282.0
 30
0.0
 11
353.15
 21
282.0
 31
0.0
  0
LINE
  5
104
100
AcDbEntity
  8
1031
370
    30
  6
Continuous
 62
     7
100
AcDbLine
 10
353.15
 20
296.0
 30
0.0
 11
353.15
 21
295.0
 31
0.0
  0
LINE
  5
105
100
AcDbEntity
  8
1031
370
    30
  6
Continuous
 62
     7
100
AcDbLine
 10
357.15
 20
296.0
 30
0.0
 11
357.15
 21
295.0
 31
0.0
  0
LINE
  5
106
100
AcDbEntity
  8
1031
370
    30
  6
Continuous
 62
     7
100
AcDbLine
 10
357.15
 20
296.0
 30
0.0
 11
353.15
 21
296.0
 31
0.0
  0
LINE
  5
107
100
AcDbEntity
  8
1031
370
    30
  6
Continuous
 62
     7
100
AcDbLine
 10
354.65
 20
283.0
 30
0.0
 11
348.03
 21
283.0
 31
0.0
  0
LINE
  5
108
100
AcDbEntity
  8
1031
370
    30
  6
Continuous
 62
     7
100
AcDbLine
 10
354.65
 20
284.5
 30
0.0
 11
348.03
 21
284.5
 31
0.0
  0
LINE
  5
109
100
AcDbEntity
  8
1031
370
    30
  6
Continuous
 62
     7
100
AcDbLine
 10
354.65
 20
293.5
 30
0.0
 11
348.03
 21
293.5
 31
0.0
  0
LINE
  5
10A
100
AcDbEntity
  8
1031
370
    30
  6
Continuous
 62
     7
100
AcDbLine
 10
354.65
 20
295.0
 30
0.0
 11
348.03
 21
295.0
 31
0.0
  0
LINE
  5
10B
100
AcDbEntity
  8
1031
370
    30
  6
Continuous
 62
     7
100
AcDbLine
 10
360.46
 20
288.5
 30
0.0
 11
359.46
 21
288.5
 31
0.0
  0
LINE
  5
10C
100
AcDbEntity
  8
1031
370
    30
  6
Continuous
 62
     7
100
AcDbLine
 10
359.46
 20
288.5
 30
0.0
 11
359.46
 21
287.5
 31
0.0
  0
LINE
  5
10D
100
AcDbEntity
  8
1031
370
    30
  6
Continuous
 62
     7
100
AcDbLine
 10
358.46
 20
287.5
 30
0.0
 11
358.46
 21
288.5
 31
0.0
  0
LINE
  5
10E
100
AcDbEntity
  8
1031
370
    30
  6
Continuous
 62
     7
100
AcDbLine
 10
358.46
 20
288.5
 30
0.0
 11
357.46
 21
288.5
 31
0.0
  0
LINE
  5
10F
100
AcDbEntity
  8
1031
370
    30
  6
Continuous
 62
     7
100
AcDbLine
 10
360.46
 20
289.5
 30
0.0
 11
359.46
 21
289.5
 31
0.0
  0
LINE
  5
110
100
AcDbEntity
  8
1031
370
    30
  6
Continuous
 62
     7
100
AcDbLine
 10
359.46
 20
289.5
 30
0.0
 11
359.46
 21
290.5
 31
0.0
  0
LINE
  5
111
100
AcDbEntity
  8
1031
370
    30
  6
Continuous
 62
     7
100
AcDbLine
 10
358.46
 20
290.5
 30
0.0
 11
358.46
 21
289.5
 31
0.0
  0
LINE
  5
112
100
AcDbEntity
  8
1031
370
    30
  6
Continuous
 62
     7
100
AcDbLine
 10
358.46
 20
289.5
 30
0.0
 11
357.46
 21
289.5
 31
0.0
  0
CIRCLE
  5
113
100
AcDbEntity
  8
1031
370
    30
  6
Continuous
 62
     7
100
AcDbCircle
 10
358.96
 20
289.0
 30
0.0
 40
2.5
  0
POINT
  5
114
100
AcDbEntity
  8
1031
370
     9
  6
Continuous
 62
     7
100
AcDbPoint
 10
374.2
 20
289.0
 30
0.0
  0
LINE
  5
115
100
AcDbEntity
  8
1031
370
    30
  6
Continuous
 62
     7
100
AcDbLine
 10
360.77
 20
282.0
 30
0.0
 11
360.77
 21
283.0
 31
0.0
  0
LINE
  5
116
100
AcDbEntity
  8
1031
370
    30
  6
Continuous
 62
     7
100
AcDbLine
 10
364.77
 20
282.0
 30
0.0
 11
364.77
 21
283.0
 31
0.0
  0
LINE
  5
117
100
AcDbEntity
  8
1031
370
    30
  6
Continuous
 62
     7
100
AcDbLine
 10
363.27
 20
282.0
 30
0.0
 11
363.27
 21
296.0
 31
0.0
  0
LINE
  5
118
100
AcDbEntity
  8
1031
370
    30
  6
Continuous
 62
     7
100
AcDbLine
 10
362.27
 20
282.0
 30
0.0
 11
362.27
 21
296.0
 31
0.0
  0
LINE
  5
119
100
AcDbEntity
  8
1031
370
    30
  6
Continuous
 62
     7
100
AcDbLine
 10
364.77
 20
282.0
 30
0.0
 11
360.77
 21
282.0
 31
0.0
  0
LINE
  5
11A
100
AcDbEntity
  8
1031
370
    30
  6
Continuous
 62
     7
100
AcDbLine
 10
360.77
 20
296.0
 30
0.0
 11
360.77
 21
295.0
 31
0.0
  0
LINE
  5
11B
100
AcDbEntity
  8
1031
370
    30
  6
Continuous
 62
     7
100
AcDbLine
 10
364.77
 20
296.0
 30
0.0
 11
364.77
 21
295.0
 31
0.0
  0
LINE
  5
11C
100
AcDbEntity
  8
1031
370
    30
  6
Continuous
 62
     7
100
AcDbLine
 10
364.77
 20
296.0
 30
0.0
 11
360.77
 21
296.0
 31
0.0
  0
LINE
  5
11D
100
AcDbEntity
  8
1031
370
    30
  6
Continuous
 62
     7
100
AcDbLine
 10
362.27
 20
283.0
 30
0.0
 11
355.65
 21
283.0
 31
0.0
  0
LINE
  5
11E
100
AcDbEntity
  8
1031
370
    30
  6
Continuous
 62
     7
100
AcDbLine
 10
362.27
 20
284.5
 30
0.0
 11
355.65
 21
284.5
 31
0.0
  0
LINE
  5
11F
100
AcDbEntity
  8
1031
370
    30
  6
Continuous
 62
     7
100
AcDbLine
 10
362.27
 20
293.5
 30
0.0
 11
355.65
 21
293.5
 31
0.0
  0
LINE
  5
120
100
AcDbEntity
  8
1031
370
    30
  6
Continuous
 62
     7
100
AcDbLine
 10
362.27
 20
295.0
 30
0.0
 11
355.65
 21
295.0
 31
0.0
  0
LINE
  5
121
100
AcDbEntity
  8
1031
370
    30
  6
Continuous
 62
     7
100
AcDbLine
 10
368.08
 20
288.5
 30
0.0
 11
367.08
 21
288.5
 31
0.0
  0
LINE
  5
122
100
AcDbEntity
  8
1031
370
    30
  6
Continuous
 62
     7
100
AcDbLine
 10
367.08
 20
288.5
 30
0.0
 11
367.08
 21
287.5
 31
0.0
  0
LINE
  5
123
100
AcDbEntity
  8
1031
370
    30
  6
Continuous
 62
     7
100
AcDbLine
 10
366.08
 20
287.5
 30
0.0
 11
366.08
 21
288.5
 31
0.0
  0
LINE
  5
124
100
AcDbEntity
  8
1031
370
    30
  6
Continuous
 62
     7
100
AcDbLine
 10
366.08
 20
288.5
 30
0.0
 11
365.08
 21
288.5
 31
0.0
  0
LINE
  5
125
100
AcDbEntity
  8
1031
370
    30
  6
Continuous
 62
     7
100
AcDbLine
 10
368.08
 20
289.5
 30
0.0
 11
367.08
 21
289.5
 31
0.0
  0
LINE
  5
126
100
AcDbEntity
  8
1031
370
    30
  6
Continuous
 62
     7
100
AcDbLine
 10
367.08
 20
289.5
 30
0.0
 11
367.08
 21
290.5
 31
0.0
  0
LINE
  5
127
100
AcDbEntity
  8
1031
370
    30
  6
Continuous
 62
     7
100
AcDbLine
 10
366.08
 20
290.5
 30
0.0
 11
366.08
 21
289.5
 31
0.0
  0
LINE
  5
128
100
AcDbEntity
  8
1031
370
    30
  6
Continuous
 62
     7
100
AcDbLine
 10
366.08
 20
289.5
 30
0.0
 11
365.08
 21
289.5
 31
0.0
  0
CIRCLE
  5
129
100
AcDbEntity
  8
1031
370
    30
  6
Continuous
 62
     7
100
AcDbCircle
 10
366.58
 20
289.0
 30
0.0
 40
2.5
  0
LINE
  5
12A
100
AcDbEntity
  8
1031
370
    30
  6
Continuous
 62
     7
100
AcDbLine
 10
368.39
 20
282.0
 30
0.0
 11
368.39
 21
283.0
 31
0.0
  0
LINE
  5
12B
100
AcDbEntity
  8
1031
370
    30
  6
Continuous
 62
     7
100
AcDbLine
 10
372.39
 20
282.0
 30
0.0
 11
372.39
 21
283.0
 31
0.0
  0
LINE
  5
12C
100
AcDbEntity
  8
1031
370
    30
  6
Continuous
 62
     7
100
AcDbLine
 10
370.89
 20
282.0
 30
0.0
 11
370.89
 21
296.0
 31
0.0
  0
LINE
  5
12D
100
AcDbEntity
  8
1031
370
    30
  6
Continuous
 62
     7
100
AcDbLine
 10
369.89
 20
282.0
 30
0.0
 11
369.89
 21
296.0
 31
0.0
  0
LINE
  5
12E
100
AcDbEntity
  8
1031
370
    30
  6
Continuous
 62
     7
100
AcDbLine
 10
372.39
 20
282.0
 30
0.0
 11
368.39
 21
282.0
 31
0.0
  0
LINE
  5
12F
100
AcDbEntity
  8
1031
370
    30
  6
Continuous
 62
     7
100
AcDbLine
 10
368.39
 20
296.0
 30
0.0
 11
368.39
 21
295.0
 31
0.0
  0
LINE
  5
130
100
AcDbEntity
  8
1031
370
    30
  6
Continuous
 62
     7
100
AcDbLine
 10
372.39
 20
296.0
 30
0.0
 11
372.39
 21
295.0
 31
0.0
  0
LINE
  5
131
100
AcDbEntity
  8
1031
370
    30
  6
Continuous
 62
     7
100
AcDbLine
 10
372.39
 20
296.0
 30
0.0
 11
368.39
 21
296.0
 31
0.0
  0
LINE
  5
132
100
AcDbEntity
  8
1031
370
    30
  6
Continuous
 62
     7
100
AcDbLine
 10
369.89
 20
283.0
 30
0.0
 11
363.27
 21
283.0
 31
0.0
  0
LINE
  5
133
100
AcDbEntity
  8
1031
370
    30
  6
Continuous
 62
     7
100
AcDbLine
 10
369.89
 20
284.5
 30
0.0
 11
363.27
 21
284.5
 31
0.0
  0
LINE
  5
134
100
AcDbEntity
  8
1031
370
    30
  6
Continuous
 62
     7
100
AcDbLine
 10
369.89
 20
293.5
 30
0.0
 11
363.27
 21
293.5
 31
0.0
  0
LINE
  5
135
100
AcDbEntity
  8
1031
370
    30
  6
Continuous
 62
     7
100
AcDbLine
 10
369.89
 20
295.0
 30
0.0
 11
363.27
 21
295.0
 31
0.0
  0
LINE
  5
136
100
AcDbEntity
  8
1031
370
    30
  6
Continuous
 62
     7
100
AcDbLine
 10
375.7
 20
288.5
 30
0.0
 11
374.7
 21
288.5
 31
0.0
  0
LINE
  5
137
100
AcDbEntity
  8
1031
370
    30
  6
Continuous
 62
     7
100
AcDbLine
 10
374.7
 20
288.5
 30
0.0
 11
374.7
 21
287.5
 31
0.0
  0
LINE
  5
138
100
AcDbEntity
  8
1031
370
    30
  6
Continuous
 62
     7
100
AcDbLine
 10
373.7
 20
287.5
 30
0.0
 11
373.7
 21
288.5
 31
0.0
  0
LINE
  5
139
100
AcDbEntity
  8
1031
370
    30
  6
Continuous
 62
     7
100
AcDbLine
 10
373.7
 20
288.5
 30
0.0
 11
372.7
 21
288.5
 31
0.0
  0
LINE
  5
13A
100
AcDbEntity
  8
1031
370
    30
  6
Continuous
 62
     7
100
AcDbLine
 10
375.7
 20
289.5
 30
0.0
 11
374.7
 21
289.5
 31
0.0
  0
LINE
  5
13B
100
AcDbEntity
  8
1031
370
    30
  6
Continuous
 62
     7
100
AcDbLine
 10
374.7
 20
289.5
 30
0.0
 11
374.7
 21
290.5
 31
0.0
  0
LINE
  5
13C
100
AcDbEntity
  8
1031
370
    30
  6
Continuous
 62
     7
100
AcDbLine
 10
373.7
 20
290.5
 30
0.0
 11
373.7
 21
289.5
 31
0.0
  0
LINE
  5
13D
100
AcDbEntity
  8
1031
370
    30
  6
Continuous
 62
     7
100
AcDbLine
 10
373.7
 20
289.5
 30
0.0
 11
372.7
 21
289.5
 31
0.0
  0
CIRCLE
  5
13E
100
AcDbEntity
  8
1031
370
    30
  6
Continuous
 62
     7
100
AcDbCircle
 10
374.2
 20
289.0
 30
0.0
 40
2.5
  0
LINE
  5
13F
100
AcDbEntity
  8
1031
370
    30
  6
Continuous
 62
     7
100
AcDbLine
 10
421.73
 20
282.0
 30
0.0
 11
421.73
 21
283.0
 31
0.0
  0
LINE
  5
140
100
AcDbEntity
  8
1031
370
    30
  6
Continuous
 62
     7
100
AcDbLine
 10
424.48
 20
282.0
 30
0.0
 11
421.73
 21
282.0
 31
0.0
  0
LINE
  5
141
100
AcDbEntity
  8
1031
370
    30
  6
Continuous
 62
     7
100
AcDbLine
 10
421.73
 20
296.0
 30
0.0
 11
421.73
 21
295.0
 31
0.0
  0
LINE
  5
142
100
AcDbEntity
  8
1031
370
    30
  6
Continuous
 62
     7
100
AcDbLine
 10
424.48
 20
296.0
 30
0.0
 11
421.73
 21
296.0
 31
0.0
  0
LINE
  5
143
100
AcDbEntity
  8
1031
370
    30
  6
Continuous
 62
     7
100
AcDbLine
 10
377.51
 20
283.0
 30
0.0
 11
370.89
 21
283.0
 31
0.0
  0
LINE
  5
144
100
AcDbEntity
  8
1031
370
    30
  6
Continuous
 62
     7
100
AcDbLine
 10
377.51
 20
284.5
 30
0.0
 11
370.89
 21
284.5
 31
0.0
  0
LINE
  5
145
100
AcDbEntity
  8
1031
370
    30
  6
Continuous
 62
     7
100
AcDbLine
 10
377.51
 20
293.5
 30
0.0
 11
370.89
 21
293.5
 31
0.0
  0
LINE
  5
146
100
AcDbEntity
  8
1031
370
    30
  6
Continuous
 62
     7
100
AcDbLine
 10
377.51
 20
295.0
 30
0.0
 11
370.89
 21
295.0
 31
0.0
  0
LINE
  5
147
100
AcDbEntity
  8
1031
370
    30
  6
Continuous
 62
     7
100
AcDbLine
 10
423.23
 20
282.0
 30
0.0
 11
423.23
 21
296.0
 31
0.0
  0
LINE
  5
148
100
AcDbEntity
  8
1031
370
    30
  6
Continuous
 62
     7
100
AcDbLine
 10
424.48
 20
282.0
 30
0.0
 11
424.48
 21
296.0
 31
0.0
  0
LINE
  5
149
100
AcDbEntity
  8
1031
370
    30
  6
Continuous
 62
     7
100
AcDbLine
 10
348.03
 20
282.0
 30
0.0
 11
348.03
 21
296.0
 31
0.0
  0
LINE
  5
14A
100
AcDbEntity
  8
1031
370
    30
  6
Continuous
 62
     7
100
AcDbLine
 10
349.53
 20
296.0
 30
0.0
 11
345.53
 21
296.0
 31
0.0
  0
LINE
  5
14B
100
AcDbEntity
  8
1031
370
    30
  6
Continuous
 62
     7
100
AcDbLine
 10
345.22
 20
288.5
 30
0.0
 11
344.22
 21
288.5
 31
0.0
  0
LINE
  5
14C
100
AcDbEntity
  8
1031
370
    30
  6
Continuous
 62
     7
100
AcDbLine
 10
344.22
 20
288.5
 30
0.0
 11
344.22
 21
287.5
 31
0.0
  0
LINE
  5
14D
100
AcDbEntity
  8
1031
370
    30
  6
Continuous
 62
     7
100
AcDbLine
 10
343.22
 20
287.5
 30
0.0
 11
343.22
 21
288.5
 31
0.0
  0
LINE
  5
14E
100
AcDbEntity
  8
1031
370
    30
  6
Continuous
 62
     7
100
AcDbLine
 10
343.22
 20
288.5
 30
0.0
 11
342.22
 21
288.5
 31
0.0
  0
LINE
  5
14F
100
AcDbEntity
  8
1031
370
    30
  6
Continuous
 62
     7
100
AcDbLine
 10
345.22
 20
289.5
 30
0.0
 11
344.22
 21
289.5
 31
0.0
  0
LINE
  5
150
100
AcDbEntity
  8
1031
370
    30
  6
Continuous
 62
     7
100
AcDbLine
 10
344.22
 20
289.5
 30
0.0
 11
344.22
 21
290.5
 31
0.0
  0
LINE
  5
151
100
AcDbEntity
  8
1031
370
    30
  6
Continuous
 62
     7
100
AcDbLine
 10
343.22
 20
290.5
 30
0.0
 11
343.22
 21
289.5
 31
0.0
  0
LINE
  5
152
100
AcDbEntity
  8
1031
370
    30
  6
Continuous
 62
     7
100
AcDbLine
 10
343.22
 20
289.5
 30
0.0
 11
342.22
 21
289.5
 31
0.0
  0
CIRCLE
  5
153
100
AcDbEntity
  8
1031
370
    30
  6
Continuous
 62
     7
100
AcDbCircle
 10
343.72
 20
289.0
 30
0.0
 40
2.5
  0
LINE
  5
154
100
AcDbEntity
  8
1031
370
    30
  6
Continuous
 62
     7
100
AcDbLine
 10
347.03
 20
282.0
 30
0.0
 11
347.03
 21
296.0
 31
0.0
  0
LINE
  5
155
100
AcDbEntity
  8
1031
370
    30
  6
Continuous
 62
     7
100
AcDbLine
 10
347.03
 20
293.5
 30
0.0
 11
340.41
 21
293.5
 31
0.0
  0
LINE
  5
156
100
AcDbEntity
  8
1031
370
    30
  6
Continuous
 62
     7
100
AcDbLine
 10
347.03
 20
295.0
 30
0.0
 11
340.41
 21
295.0
 31
0.0
  0
LINE
  5
157
100
AcDbEntity
  8
1031
370
    30
  6
Continuous
 62
     7
100
AcDbLine
 10
347.03
 20
284.5
 30
0.0
 11
340.41
 21
284.5
 31
0.0
  0
LINE
  5
158
100
AcDbEntity
  8
1031
370
    30
  6
Continuous
 62
     7
100
AcDbLine
 10
347.03
 20
283.0
 30
0.0
 11
340.41
 21
283.0
 31
0.0
  0
LINE
  5
159
100
AcDbEntity
  8
1031
370
    30
  6
Continuous
 62
     7
100
AcDbLine
 10
341.91
 20
282.0
 30
0.0
 11
341.91
 21
283.0
 31
0.0
  0
LINE
  5
15A
100
AcDbEntity
  8
1031
370
    30
  6
Continuous
 62
     7
100
AcDbLine
 10
345.53
 20
282.0
 30
0.0
 11
345.53
 21
283.0
 31
0.0
  0
LINE
  5
15B
100
AcDbEntity
  8
1031
370
    30
  6
Continuous
 62
     7
100
AcDbLine
 10
341.91
 20
296.0
 30
0.0
 11
341.91
 21
295.0
 31
0.0
  0
LINE
  5
15C
100
AcDbEntity
  8
1031
370
    30
  6
Continuous
 62
     7
100
AcDbLine
 10
345.53
 20
296.0
 30
0.0
 11
345.53
 21
295.0
 31
0.0
  0
LINE
  5
15D
100
AcDbEntity
  8
1031
370
    30
  6
Continuous
 62
     7
100
AcDbLine
 10
340.41
 20
282.0
 30
0.0
 11
340.41
 21
296.0
 31
0.0
  0
LINE
  5
15E
100
AcDbEntity
  8
1031
370
    30
  6
Continuous
 62
     7
100
AcDbLine
 10
341.91
 20
296.0
 30
0.0
 11
337.91
 21
296.0
 31
0.0
  0
LINE
  5
15F
100
AcDbEntity
  8
1031
370
    30
  6
Continuous
 62
     7
100
AcDbLine
 10
337.6
 20
288.5
 30
0.0
 11
336.6
 21
288.5
 31
0.0
  0
LINE
  5
160
100
AcDbEntity
  8
1031
370
    30
  6
Continuous
 62
     7
100
AcDbLine
 10
336.6
 20
288.5
 30
0.0
 11
336.6
 21
287.5
 31
0.0
  0
LINE
  5
161
100
AcDbEntity
  8
1031
370
    30
  6
Continuous
 62
     7
100
AcDbLine
 10
335.6
 20
287.5
 30
0.0
 11
335.6
 21
288.5
 31
0.0
  0
LINE
  5
162
100
AcDbEntity
  8
1031
370
    30
  6
Continuous
 62
     7
100
AcDbLine
 10
335.6
 20
288.5
 30
0.0
 11
334.6
 21
288.5
 31
0.0
  0
LINE
  5
163
100
AcDbEntity
  8
1031
370
    30
  6
Continuous
 62
     7
100
AcDbLine
 10
337.6
 20
289.5
 30
0.0
 11
336.6
 21
289.5
 31
0.0
  0
LINE
  5
164
100
AcDbEntity
  8
1031
370
    30
  6
Continuous
 62
     7
100
AcDbLine
 10
336.6
 20
289.5
 30
0.0
 11
336.6
 21
290.5
 31
0.0
  0
LINE
  5
165
100
AcDbEntity
  8
1031
370
    30
  6
Continuous
 62
     7
100
AcDbLine
 10
335.6
 20
290.5
 30
0.0
 11
335.6
 21
289.5
 31
0.0
  0
LINE
  5
166
100
AcDbEntity
  8
1031
370
    30
  6
Continuous
 62
     7
100
AcDbLine
 10
335.6
 20
289.5
 30
0.0
 11
334.6
 21
289.5
 31
0.0
  0
CIRCLE
  5
167
100
AcDbEntity
  8
1031
370
    30
  6
Continuous
 62
     7
100
AcDbCircle
 10
336.1
 20
289.0
 30
0.0
 40
2.5
  0
LINE
  5
168
100
AcDbEntity
  8
1031
370
    30
  6
Continuous
 62
     7
100
AcDbLine
 10
339.41
 20
282.0
 30
0.0
 11
339.41
 21
296.0
 31
0.0
  0
LINE
  5
169
100
AcDbEntity
  8
1031
370
    30
  6
Continuous
 62
     7
100
AcDbLine
 10
339.41
 20
293.5
 30
0.0
 11
332.79
 21
293.5
 31
0.0
  0
LINE
  5
16A
100
AcDbEntity
  8
1031
370
    30
  6
Continuous
 62
     7
100
AcDbLine
 10
339.41
 20
295.0
 30
0.0
 11
332.79
 21
295.0
 31
0.0
  0
LINE
  5
16B
100
AcDbEntity
  8
1031
370
    30
  6
Continuous
 62
     7
100
AcDbLine
 10
339.41
 20
284.5
 30
0.0
 11
332.79
 21
284.5
 31
0.0
  0
LINE
  5
16C
100
AcDbEntity
  8
1031
370
    30
  6
Continuous
 62
     7
100
AcDbLine
 10
339.41
 20
283.0
 30
0.0
 11
332.79
 21
283.0
 31
0.0
  0
LINE
  5
16D
100
AcDbEntity
  8
1031
370
    30
  6
Continuous
 62
     7
100
AcDbLine
 10
334.29
 20
282.0
 30
0.0
 11
334.29
 21
283.0
 31
0.0
  0
LINE
  5
16E
100
AcDbEntity
  8
1031
370
    30
  6
Continuous
 62
     7
100
AcDbLine
 10
337.91
 20
282.0
 30
0.0
 11
337.91
 21
283.0
 31
0.0
  0
LINE
  5
16F
100
AcDbEntity
  8
1031
370
    30
  6
Continuous
 62
     7
100
AcDbLine
 10
334.29
 20
296.0
 30
0.0
 11
334.29
 21
295.0
 31
0.0
  0
LINE
  5
170
100
AcDbEntity
  8
1031
370
    30
  6
Continuous
 62
     7
100
AcDbLine
 10
337.91
 20
296.0
 30
0.0
 11
337.91
 21
295.0
 31
0.0
  0
LINE
  5
171
100
AcDbEntity
  8
1031
370
    30
  6
Continuous
 62
     7
100
AcDbLine
 10
332.79
 20
282.0
 30
0.0
 11
332.79
 21
296.0
 31
0.0
  0
LINE
  5
172
100
AcDbEntity
  8
1031
370
    30
  6
Continuous
 62
     7
100
AcDbLine
 10
334.29
 20
296.0
 30
0.0
 11
330.29
 21
296.0
 31
0.0
  0
LINE
  5
173
100
AcDbEntity
  8
1031
370
    30
  6
Continuous
 62
     7
100
AcDbLine
 10
329.98
 20
288.5
 30
0.0
 11
328.98
 21
288.5
 31
0.0
  0
LINE
  5
174
100
AcDbEntity
  8
1031
370
    30
  6
Continuous
 62
     7
100
AcDbLine
 10
328.98
 20
288.5
 30
0.0
 11
328.98
 21
287.5
 31
0.0
  0
LINE
  5
175
100
AcDbEntity
  8
1031
370
    30
  6
Continuous
 62
     7
100
AcDbLine
 10
327.98
 20
287.5
 30
0.0
 11
327.98
 21
288.5
 31
0.0
  0
LINE
  5
176
100
AcDbEntity
  8
1031
370
    30
  6
Continuous
 62
     7
100
AcDbLine
 10
327.98
 20
288.5
 30
0.0
 11
326.98
 21
288.5
 31
0.0
  0
LINE
  5
177
100
AcDbEntity
  8
1031
370
    30
  6
Continuous
 62
     7
100
AcDbLine
 10
329.98
 20
289.5
 30
0.0
 11
328.98
 21
289.5
 31
0.0
  0
LINE
  5
178
100
AcDbEntity
  8
1031
370
    30
  6
Continuous
 62
     7
100
AcDbLine
 10
328.98
 20
289.5
 30
0.0
 11
328.98
 21
290.5
 31
0.0
  0
LINE
  5
179
100
AcDbEntity
  8
1031
370
    30
  6
Continuous
 62
     7
100
AcDbLine
 10
327.98
 20
290.5
 30
0.0
 11
327.98
 21
289.5
 31
0.0
  0
LINE
  5
17A
100
AcDbEntity
  8
1031
370
    30
  6
Continuous
 62
     7
100
AcDbLine
 10
327.98
 20
289.5
 30
0.0
 11
326.98
 21
289.5
 31
0.0
  0
CIRCLE
  5
17B
100
AcDbEntity
  8
1031
370
    30
  6
Continuous
 62
     7
100
AcDbCircle
 10
328.48
 20
289.0
 30
0.0
 40
2.5
  0
LINE
  5
17C
100
AcDbEntity
  8
1031
370
    30
  6
Continuous
 62
     7
100
AcDbLine
 10
331.79
 20
282.0
 30
0.0
 11
331.79
 21
296.0
 31
0.0
  0
LINE
  5
17D
100
AcDbEntity
  8
1031
370
    30
  6
Continuous
 62
     7
100
AcDbLine
 10
331.79
 20
293.5
 30
0.0
 11
325.17
 21
293.5
 31
0.0
  0
LINE
  5
17E
100
AcDbEntity
  8
1031
370
    30
  6
Continuous
 62
     7
100
AcDbLine
 10
331.79
 20
295.0
 30
0.0
 11
325.17
 21
295.0
 31
0.0
  0
LINE
  5
17F
100
AcDbEntity
  8
1031
370
    30
  6
Continuous
 62
     7
100
AcDbLine
 10
331.79
 20
284.5
 30
0.0
 11
325.17
 21
284.5
 31
0.0
  0
LINE
  5
180
100
AcDbEntity
  8
1031
370
    30
  6
Continuous
 62
     7
100
AcDbLine
 10
331.79
 20
283.0
 30
0.0
 11
325.17
 21
283.0
 31
0.0
  0
LINE
  5
181
100
AcDbEntity
  8
1031
370
    30
  6
Continuous
 62
     7
100
AcDbLine
 10
330.29
 20
282.0
 30
0.0
 11
330.29
 21
283.0
 31
0.0
  0
LINE
  5
182
100
AcDbEntity
  8
1031
370
    30
  6
Continuous
 62
     7
100
AcDbLine
 10
330.29
 20
296.0
 30
0.0
 11
330.29
 21
295.0
 31
0.0
  0
LINE
  5
183
100
AcDbEntity
  8
1031
370
    30
  6
Continuous
 62
     7
100
AcDbLine
 10
326.67
 20
282.0
 30
0.0
 11
326.67
 21
283.0
 31
0.0
  0
LINE
  5
184
100
AcDbEntity
  8
1031
370
    30
  6
Continuous
 62
     7
100
AcDbLine
 10
326.67
 20
296.0
 30
0.0
 11
326.67
 21
295.0
 31
0.0
  0
LINE
  5
185
100
AcDbEntity
  8
1031
370
    30
  6
Continuous
 62
     7
100
AcDbLine
 10
325.17
 20
282.0
 30
0.0
 11
325.17
 21
296.0
 31
0.0
  0
LINE
  5
186
100
AcDbEntity
  8
1031
370
    30
  6
Continuous
 62
     7
100
AcDbLine
 10
326.67
 20
296.0
 30
0.0
 11
323.92
 21
296.0
 31
0.0
  0
LINE
  5
187
100
AcDbEntity
  8
1031
370
    30
  6
Continuous
 62
     7
100
AcDbLine
 10
323.92
 20
282.0
 30
0.0
 11
323.92
 21
296.0
 31
0.0
  0
LINE
  5
188
100
AcDbEntity
  8
1031
370
    30
  6
Continuous
 62
     7
100
AcDbLine
 10
380.01
 20
282.0
 30
0.0
 11
380.01
 21
283.0
 31
0.0
  0
LINE
  5
189
100
AcDbEntity
  8
1031
370
    30
  6
Continuous
 62
     7
100
AcDbLine
 10
380.01
 20
296.0
 30
0.0
 11
380.01
 21
295.0
 31
0.0
  0
LINE
  5
18A
100
AcDbEntity
  8
1031
370
    30
  6
Continuous
 62
     7
100
AcDbLine
 10
383.32
 20
288.5
 30
0.0
 11
382.32
 21
288.5
 31
0.0
  0
LINE
  5
18B
100
AcDbEntity
  8
1031
370
    30
  6
Continuous
 62
     7
100
AcDbLine
 10
382.32
 20
288.5
 30
0.0
 11
382.32
 21
287.5
 31
0.0
  0
LINE
  5
18C
100
AcDbEntity
  8
1031
370
    30
  6
Continuous
 62
     7
100
AcDbLine
 10
381.32
 20
287.5
 30
0.0
 11
381.32
 21
288.5
 31
0.0
  0
LINE
  5
18D
100
AcDbEntity
  8
1031
370
    30
  6
Continuous
 62
     7
100
AcDbLine
 10
381.32
 20
288.5
 30
0.0
 11
380.32
 21
288.5
 31
0.0
  0
LINE
  5
18E
100
AcDbEntity
  8
1031
370
    30
  6
Continuous
 62
     7
100
AcDbLine
 10
383.32
 20
289.5
 30
0.0
 11
382.32
 21
289.5
 31
0.0
  0
LINE
  5
18F
100
AcDbEntity
  8
1031
370
    30
  6
Continuous
 62
     7
100
AcDbLine
 10
382.32
 20
289.5
 30
0.0
 11
382.32
 21
290.5
 31
0.0
  0
LINE
  5
190
100
AcDbEntity
  8
1031
370
    30
  6
Continuous
 62
     7
100
AcDbLine
 10
381.32
 20
290.5
 30
0.0
 11
381.32
 21
289.5
 31
0.0
  0
LINE
  5
191
100
AcDbEntity
  8
1031
370
    30
  6
Continuous
 62
     7
100
AcDbLine
 10
381.32
 20
289.5
 30
0.0
 11
380.32
 21
289.5
 31
0.0
  0
CIRCLE
  5
192
100
AcDbEntity
  8
1031
370
    30
  6
Continuous
 62
     7
100
AcDbCircle
 10
381.82
 20
289.0
 30
0.0
 40
2.5
  0
LINE
  5
193
100
AcDbEntity
  8
1031
370
    30
  6
Continuous
 62
     7
100
AcDbLine
 10
385.13
 20
283.0
 30
0.0
 11
378.51
 21
283.0
 31
0.0
  0
LINE
  5
194
100
AcDbEntity
  8
1031
370
    30
  6
Continuous
 62
     7
100
AcDbLine
 10
385.13
 20
284.5
 30
0.0
 11
378.51
 21
284.5
 31
0.0
  0
LINE
  5
195
100
AcDbEntity
  8
1031
370
    30
  6
Continuous
 62
     7
100
AcDbLine
 10
385.13
 20
293.5
 30
0.0
 11
378.51
 21
293.5
 31
0.0
  0
LINE
  5
196
100
AcDbEntity
  8
1031
370
    30
  6
Continuous
 62
     7
100
AcDbLine
 10
385.13
 20
295.0
 30
0.0
 11
378.51
 21
295.0
 31
0.0
  0
LINE
  5
197
100
AcDbEntity
  8
1031
370
    30
  6
Continuous
 62
     7
100
AcDbLine
 10
378.51
 20
282.0
 30
0.0
 11
378.51
 21
296.0
 31
0.0
  0
LINE
  5
198
100
AcDbEntity
  8
1031
370
    30
  6
Continuous
 62
     7
100
AcDbLine
 10
377.51
 20
282.0
 30
0.0
 11
377.51
 21
296.0
 31
0.0
  0
LINE
  5
199
100
AcDbEntity
  8
1031
370
    30
  6
Continuous
 62
     7
100
AcDbLine
 10
376.01
 20
296.0
 30
0.0
 11
376.01
 21
295.0
 31
0.0
  0
LINE
  5
19A
100
AcDbEntity
  8
1031
370
    30
  6
Continuous
 62
     7
100
AcDbLine
 10
380.01
 20
296.0
 30
0.0
 11
376.01
 21
296.0
 31
0.0
  0
LINE
  5
19B
100
AcDbEntity
  8
1031
370
    30
  6
Continuous
 62
     7
100
AcDbLine
 10
376.01
 20
282.0
 30
0.0
 11
376.01
 21
283.0
 31
0.0
  0
LINE
  5
19C
100
AcDbEntity
  8
1031
370
    30
  6
Continuous
 62
     7
100
AcDbLine
 10
380.01
 20
282.0
 30
0.0
 11
376.01
 21
282.0
 31
0.0
  0
LINE
  5
19D
100
AcDbEntity
  8
1031
370
    30
  6
Continuous
 62
     7
100
AcDbLine
 10
387.63
 20
282.0
 30
0.0
 11
387.63
 21
283.0
 31
0.0
  0
LINE
  5
19E
100
AcDbEntity
  8
1031
370
    30
  6
Continuous
 62
     7
100
AcDbLine
 10
387.63
 20
296.0
 30
0.0
 11
387.63
 21
295.0
 31
0.0
  0
LINE
  5
19F
100
AcDbEntity
  8
1031
370
    30
  6
Continuous
 62
     7
100
AcDbLine
 10
390.94
 20
288.5
 30
0.0
 11
389.94
 21
288.5
 31
0.0
  0
LINE
  5
1A0
100
AcDbEntity
  8
1031
370
    30
  6
Continuous
 62
     7
100
AcDbLine
 10
389.94
 20
288.5
 30
0.0
 11
389.94
 21
287.5
 31
0.0
  0
LINE
  5
1A1
100
AcDbEntity
  8
1031
370
    30
  6
Continuous
 62
     7
100
AcDbLine
 10
388.94
 20
287.5
 30
0.0
 11
388.94
 21
288.5
 31
0.0
  0
LINE
  5
1A2
100
AcDbEntity
  8
1031
370
    30
  6
Continuous
 62
     7
100
AcDbLine
 10
388.94
 20
288.5
 30
0.0
 11
387.94
 21
288.5
 31
0.0
  0
LINE
  5
1A3
100
AcDbEntity
  8
1031
370
    30
  6
Continuous
 62
     7
100
AcDbLine
 10
390.94
 20
289.5
 30
0.0
 11
389.94
 21
289.5
 31
0.0
  0
LINE
  5
1A4
100
AcDbEntity
  8
1031
370
    30
  6
Continuous
 62
     7
100
AcDbLine
 10
389.94
 20
289.5
 30
0.0
 11
389.94
 21
290.5
 31
0.0
  0
LINE
  5
1A5
100
AcDbEntity
  8
1031
370
    30
  6
Continuous
 62
     7
100
AcDbLine
 10
388.94
 20
290.5
 30
0.0
 11
388.94
 21
289.5
 31
0.0
  0
LINE
  5
1A6
100
AcDbEntity
  8
1031
370
    30
  6
Continuous
 62
     7
100
AcDbLine
 10
388.94
 20
289.5
 30
0.0
 11
387.94
 21
289.5
 31
0.0
  0
CIRCLE
  5
1A7
100
AcDbEntity
  8
1031
370
    30
  6
Continuous
 62
     7
100
AcDbCircle
 10
389.44
 20
289.0
 30
0.0
 40
2.5
  0
LINE
  5
1A8
100
AcDbEntity
  8
1031
370
    30
  6
Continuous
 62
     7
100
AcDbLine
 10
392.75
 20
283.0
 30
0.0
 11
386.13
 21
283.0
 31
0.0
  0
LINE
  5
1A9
100
AcDbEntity
  8
1031
370
    30
  6
Continuous
 62
     7
100
AcDbLine
 10
392.75
 20
284.5
 30
0.0
 11
386.13
 21
284.5
 31
0.0
  0
LINE
  5
1AA
100
AcDbEntity
  8
1031
370
    30
  6
Continuous
 62
     7
100
AcDbLine
 10
392.75
 20
293.5
 30
0.0
 11
386.13
 21
293.5
 31
0.0
  0
LINE
  5
1AB
100
AcDbEntity
  8
1031
370
    30
  6
Continuous
 62
     7
100
AcDbLine
 10
392.75
 20
295.0
 30
0.0
 11
386.13
 21
295.0
 31
0.0
  0
LINE
  5
1AC
100
AcDbEntity
  8
1031
370
    30
  6
Continuous
 62
     7
100
AcDbLine
 10
386.13
 20
282.0
 30
0.0
 11
386.13
 21
296.0
 31
0.0
  0
LINE
  5
1AD
100
AcDbEntity
  8
1031
370
    30
  6
Continuous
 62
     7
100
AcDbLine
 10
385.13
 20
282.0
 30
0.0
 11
385.13
 21
296.0
 31
0.0
  0
LINE
  5
1AE
100
AcDbEntity
  8
1031
370
    30
  6
Continuous
 62
     7
100
AcDbLine
 10
383.63
 20
296.0
 30
0.0
 11
383.63
 21
295.0
 31
0.0
  0
LINE
  5
1AF
100
AcDbEntity
  8
1031
370
    30
  6
Continuous
 62
     7
100
AcDbLine
 10
387.63
 20
296.0
 30
0.0
 11
383.63
 21
296.0
 31
0.0
  0
LINE
  5
1B0
100
AcDbEntity
  8
1031
370
    30
  6
Continuous
 62
     7
100
AcDbLine
 10
383.63
 20
282.0
 30
0.0
 11
383.63
 21
283.0
 31
0.0
  0
LINE
  5
1B1
100
AcDbEntity
  8
1031
370
    30
  6
Continuous
 62
     7
100
AcDbLine
 10
387.63
 20
282.0
 30
0.0
 11
383.63
 21
282.0
 31
0.0
  0
LINE
  5
1B2
100
AcDbEntity
  8
1031
370
    30
  6
Continuous
 62
     7
100
AcDbLine
 10
395.25
 20
282.0
 30
0.0
 11
395.25
 21
283.0
 31
0.0
  0
LINE
  5
1B3
100
AcDbEntity
  8
1031
370
    30
  6
Continuous
 62
     7
100
AcDbLine
 10
395.25
 20
296.0
 30
0.0
 11
395.25
 21
295.0
 31
0.0
  0
LINE
  5
1B4
100
AcDbEntity
  8
1031
370
    30
  6
Continuous
 62
     7
100
AcDbLine
 10
398.56
 20
288.5
 30
0.0
 11
397.56
 21
288.5
 31
0.0
  0
LINE
  5
1B5
100
AcDbEntity
  8
1031
370
    30
  6
Continuous
 62
     7
100
AcDbLine
 10
397.56
 20
288.5
 30
0.0
 11
397.56
 21
287.5
 31
0.0
  0
LINE
  5
1B6
100
AcDbEntity
  8
1031
370
    30
  6
Continuous
 62
     7
100
AcDbLine
 10
396.56
 20
287.5
 30
0.0
 11
396.56
 21
288.5
 31
0.0
  0
LINE
  5
1B7
100
AcDbEntity
  8
1031
370
    30
  6
Continuous
 62
     7
100
AcDbLine
 10
396.56
 20
288.5
 30
0.0
 11
395.56
 21
288.5
 31
0.0
  0
LINE
  5
1B8
100
AcDbEntity
  8
1031
370
    30
  6
Continuous
 62
     7
100
AcDbLine
 10
398.56
 20
289.5
 30
0.0
 11
397.56
 21
289.5
 31
0.0
  0
LINE
  5
1B9
100
AcDbEntity
  8
1031
370
    30
  6
Continuous
 62
     7
100
AcDbLine
 10
397.56
 20
289.5
 30
0.0
 11
397.56
 21
290.5
 31
0.0
  0
LINE
  5
1BA
100
AcDbEntity
  8
1031
370
    30
  6
Continuous
 62
     7
100
AcDbLine
 10
396.56
 20
290.5
 30
0.0
 11
396.56
 21
289.5
 31
0.0
  0
LINE
  5
1BB
100
AcDbEntity
  8
1031
370
    30
  6
Continuous
 62
     7
100
AcDbLine
 10
396.56
 20
289.5
 30
0.0
 11
395.56
 21
289.5
 31
0.0
  0
CIRCLE
  5
1BC
100
AcDbEntity
  8
1031
370
    30
  6
Continuous
 62
     7
100
AcDbCircle
 10
397.06
 20
289.0
 30
0.0
 40
2.5
  0
LINE
  5
1BD
100
AcDbEntity
  8
1031
370
    30
  6
Continuous
 62
     7
100
AcDbLine
 10
400.37
 20
283.0
 30
0.0
 11
393.75
 21
283.0
 31
0.0
  0
LINE
  5
1BE
100
AcDbEntity
  8
1031
370
    30
  6
Continuous
 62
     7
100
AcDbLine
 10
400.37
 20
284.5
 30
0.0
 11
393.75
 21
284.5
 31
0.0
  0
LINE
  5
1BF
100
AcDbEntity
  8
1031
370
    30
  6
Continuous
 62
     7
100
AcDbLine
 10
400.37
 20
293.5
 30
0.0
 11
393.75
 21
293.5
 31
0.0
  0
LINE
  5
1C0
100
AcDbEntity
  8
1031
370
    30
  6
Continuous
 62
     7
100
AcDbLine
 10
400.37
 20
295.0
 30
0.0
 11
393.75
 21
295.0
 31
0.0
  0
LINE
  5
1C1
100
AcDbEntity
  8
1031
370
    30
  6
Continuous
 62
     7
100
AcDbLine
 10
393.75
 20
282.0
 30
0.0
 11
393.75
 21
296.0
 31
0.0
  0
LINE
  5
1C2
100
AcDbEntity
  8
1031
370
    30
  6
Continuous
 62
     7
100
AcDbLine
 10
392.75
 20
282.0
 30
0.0
 11
392.75
 21
296.0
 31
0.0
  0
LINE
  5
1C3
100
AcDbEntity
  8
1031
370
    30
  6
Continuous
 62
     7
100
AcDbLine
 10
391.25
 20
296.0
 30
0.0
 11
391.25
 21
295.0
 31
0.0
  0
LINE
  5
1C4
100
AcDbEntity
  8
1031
370
    30
  6
Continuous
 62
     7
100
AcDbLine
 10
395.25
 20
296.0
 30
0.0
 11
391.25
 21
296.0
 31
0.0
  0
LINE
  5
1C5
100
AcDbEntity
  8
1031
370
    30
  6
Continuous
 62
     7
100
AcDbLine
 10
391.25
 20
282.0
 30
0.0
 11
391.25
 21
283.0
 31
0.0
  0
LINE
  5
1C6
100
AcDbEntity
  8
1031
370
    30
  6
Continuous
 62
     7
100
AcDbLine
 10
395.25
 20
282.0
 30
0.0
 11
391.25
 21
282.0
 31
0.0
  0
LINE
  5
1C7
100
AcDbEntity
  8
1031
370
    30
  6
Continuous
 62
     7
100
AcDbLine
 10
402.87
 20
282.0
 30
0.0
 11
402.87
 21
283.0
 31
0.0
  0
LINE
  5
1C8
100
AcDbEntity
  8
1031
370
    30
  6
Continuous
 62
     7
100
AcDbLine
 10
402.87
 20
296.0
 30
0.0
 11
402.87
 21
295.0
 31
0.0
  0
LINE
  5
1C9
100
AcDbEntity
  8
1031
370
    30
  6
Continuous
 62
     7
100
AcDbLine
 10
406.18
 20
288.5
 30
0.0
 11
405.18
 21
288.5
 31
0.0
  0
LINE
  5
1CA
100
AcDbEntity
  8
1031
370
    30
  6
Continuous
 62
     7
100
AcDbLine
 10
405.18
 20
288.5
 30
0.0
 11
405.18
 21
287.5
 31
0.0
  0
LINE
  5
1CB
100
AcDbEntity
  8
1031
370
    30
  6
Continuous
 62
     7
100
AcDbLine
 10
404.18
 20
287.5
 30
0.0
 11
404.18
 21
288.5
 31
0.0
  0
LINE
  5
1CC
100
AcDbEntity
  8
1031
370
    30
  6
Continuous
 62
     7
100
AcDbLine
 10
404.18
 20
288.5
 30
0.0
 11
403.18
 21
288.5
 31
0.0
  0
LINE
  5
1CD
100
AcDbEntity
  8
1031
370
    30
  6
Continuous
 62
     7
100
AcDbLine
 10
406.18
 20
289.5
 30
0.0
 11
405.18
 21
289.5
 31
0.0
  0
LINE
  5
1CE
100
AcDbEntity
  8
1031
370
    30
  6
Continuous
 62
     7
100
AcDbLine
 10
405.18
 20
289.5
 30
0.0
 11
405.18
 21
290.5
 31
0.0
  0
LINE
  5
1CF
100
AcDbEntity
  8
1031
370
    30
  6
Continuous
 62
     7
100
AcDbLine
 10
404.18
 20
290.5
 30
0.0
 11
404.18
 21
289.5
 31
0.0
  0
LINE
  5
1D0
100
AcDbEntity
  8
1031
370
    30
  6
Continuous
 62
     7
100
AcDbLine
 10
404.18
 20
289.5
 30
0.0
 11
403.18
 21
289.5
 31
0.0
  0
CIRCLE
  5
1D1
100
AcDbEntity
  8
1031
370
    30
  6
Continuous
 62
     7
100
AcDbCircle
 10
404.68
 20
289.0
 30
0.0
 40
2.5
  0
LINE
  5
1D2
100
AcDbEntity
  8
1031
370
    30
  6
Continuous
 62
     7
100
AcDbLine
 10
407.99
 20
283.0
 30
0.0
 11
401.37
 21
283.0
 31
0.0
  0
LINE
  5
1D3
100
AcDbEntity
  8
1031
370
    30
  6
Continuous
 62
     7
100
AcDbLine
 10
407.99
 20
284.5
 30
0.0
 11
401.37
 21
284.5
 31
0.0
  0
LINE
  5
1D4
100
AcDbEntity
  8
1031
370
    30
  6
Continuous
 62
     7
100
AcDbLine
 10
407.99
 20
293.5
 30
0.0
 11
401.37
 21
293.5
 31
0.0
  0
LINE
  5
1D5
100
AcDbEntity
  8
1031
370
    30
  6
Continuous
 62
     7
100
AcDbLine
 10
407.99
 20
295.0
 30
0.0
 11
401.37
 21
295.0
 31
0.0
  0
LINE
  5
1D6
100
AcDbEntity
  8
1031
370
    30
  6
Continuous
 62
     7
100
AcDbLine
 10
401.37
 20
282.0
 30
0.0
 11
401.37
 21
296.0
 31
0.0
  0
LINE
  5
1D7
100
AcDbEntity
  8
1031
370
    30
  6
Continuous
 62
     7
100
AcDbLine
 10
400.37
 20
282.0
 30
0.0
 11
400.37
 21
296.0
 31
0.0
  0
LINE
  5
1D8
100
AcDbEntity
  8
1031
370
    30
  6
Continuous
 62
     7
100
AcDbLine
 10
398.87
 20
296.0
 30
0.0
 11
398.87
 21
295.0
 31
0.0
  0
LINE
  5
1D9
100
AcDbEntity
  8
1031
370
    30
  6
Continuous
 62
     7
100
AcDbLine
 10
402.87
 20
296.0
 30
0.0
 11
398.87
 21
296.0
 31
0.0
  0
LINE
  5
1DA
100
AcDbEntity
  8
1031
370
    30
  6
Continuous
 62
     7
100
AcDbLine
 10
398.87
 20
282.0
 30
0.0
 11
398.87
 21
283.0
 31
0.0
  0
LINE
  5
1DB
100
AcDbEntity
  8
1031
370
    30
  6
Continuous
 62
     7
100
AcDbLine
 10
402.87
 20
282.0
 30
0.0
 11
398.87
 21
282.0
 31
0.0
  0
LINE
  5
1DC
100
AcDbEntity
  8
1031
370
    30
  6
Continuous
 62
     7
100
AcDbLine
 10
410.49
 20
282.0
 30
0.0
 11
410.49
 21
283.0
 31
0.0
  0
LINE
  5
1DD
100
AcDbEntity
  8
1031
370
    30
  6
Continuous
 62
     7
100
AcDbLine
 10
410.49
 20
296.0
 30
0.0
 11
410.49
 21
295.0
 31
0.0
  0
LINE
  5
1DE
100
AcDbEntity
  8
1031
370
    30
  6
Continuous
 62
     7
100
AcDbLine
 10
413.8
 20
288.5
 30
0.0
 11
412.8
 21
288.5
 31
0.0
  0
LINE
  5
1DF
100
AcDbEntity
  8
1031
370
    30
  6
Continuous
 62
     7
100
AcDbLine
 10
412.8
 20
288.5
 30
0.0
 11
412.8
 21
287.5
 31
0.0
  0
LINE
  5
1E0
100
AcDbEntity
  8
1031
370
    30
  6
Continuous
 62
     7
100
AcDbLine
 10
411.8
 20
287.5
 30
0.0
 11
411.8
 21
288.5
 31
0.0
  0
LINE
  5
1E1
100
AcDbEntity
  8
1031
370
    30
  6
Continuous
 62
     7
100
AcDbLine
 10
411.8
 20
288.5
 30
0.0
 11
410.8
 21
288.5
 31
0.0
  0
LINE
  5
1E2
100
AcDbEntity
  8
1031
370
    30
  6
Continuous
 62
     7
100
AcDbLine
 10
413.8
 20
289.5
 30
0.0
 11
412.8
 21
289.5
 31
0.0
  0
LINE
  5
1E3
100
AcDbEntity
  8
1031
370
    30
  6
Continuous
 62
     7
100
AcDbLine
 10
412.8
 20
289.5
 30
0.0
 11
412.8
 21
290.5
 31
0.0
  0
LINE
  5
1E4
100
AcDbEntity
  8
1031
370
    30
  6
Continuous
 62
     7
100
AcDbLine
 10
411.8
 20
290.5
 30
0.0
 11
411.8
 21
289.5
 31
0.0
  0
LINE
  5
1E5
100
AcDbEntity
  8
1031
370
    30
  6
Continuous
 62
     7
100
AcDbLine
 10
411.8
 20
289.5
 30
0.0
 11
410.8
 21
289.5
 31
0.0
  0
CIRCLE
  5
1E6
100
AcDbEntity
  8
1031
370
    30
  6
Continuous
 62
     7
100
AcDbCircle
 10
412.3
 20
289.0
 30
0.0
 40
2.5
  0
LINE
  5
1E7
100
AcDbEntity
  8
1031
370
    30
  6
Continuous
 62
     7
100
AcDbLine
 10
415.61
 20
283.0
 30
0.0
 11
408.99
 21
283.0
 31
0.0
  0
LINE
  5
1E8
100
AcDbEntity
  8
1031
370
    30
  6
Continuous
 62
     7
100
AcDbLine
 10
415.61
 20
284.5
 30
0.0
 11
408.99
 21
284.5
 31
0.0
  0
LINE
  5
1E9
100
AcDbEntity
  8
1031
370
    30
  6
Continuous
 62
     7
100
AcDbLine
 10
415.61
 20
293.5
 30
0.0
 11
408.99
 21
293.5
 31
0.0
  0
LINE
  5
1EA
100
AcDbEntity
  8
1031
370
    30
  6
Continuous
 62
     7
100
AcDbLine
 10
415.61
 20
295.0
 30
0.0
 11
408.99
 21
295.0
 31
0.0
  0
LINE
  5
1EB
100
AcDbEntity
  8
1031
370
    30
  6
Continuous
 62
     7
100
AcDbLine
 10
408.99
 20
282.0
 30
0.0
 11
408.99
 21
296.0
 31
0.0
  0
LINE
  5
1EC
100
AcDbEntity
  8
1031
370
    30
  6
Continuous
 62
     7
100
AcDbLine
 10
407.99
 20
282.0
 30
0.0
 11
407.99
 21
296.0
 31
0.0
  0
LINE
  5
1ED
100
AcDbEntity
  8
1031
370
    30
  6
Continuous
 62
     7
100
AcDbLine
 10
406.49
 20
296.0
 30
0.0
 11
406.49
 21
295.0
 31
0.0
  0
LINE
  5
1EE
100
AcDbEntity
  8
1031
370
    30
  6
Continuous
 62
     7
100
AcDbLine
 10
410.49
 20
296.0
 30
0.0
 11
406.49
 21
296.0
 31
0.0
  0
LINE
  5
1EF
100
AcDbEntity
  8
1031
370
    30
  6
Continuous
 62
     7
100
AcDbLine
 10
406.49
 20
282.0
 30
0.0
 11
406.49
 21
283.0
 31
0.0
  0
LINE
  5
1F0
100
AcDbEntity
  8
1031
370
    30
  6
Continuous
 62
     7
100
AcDbLine
 10
410.49
 20
282.0
 30
0.0
 11
406.49
 21
282.0
 31
0.0
  0
LINE
  5
1F1
100
AcDbEntity
  8
1031
370
    30
  6
Continuous
 62
     7
100
AcDbLine
 10
415.61
 20
282.0
 30
0.0
 11
415.61
 21
296.0
 31
0.0
  0
LINE
  5
1F2
100
AcDbEntity
  8
1031
370
    30
  6
Continuous
 62
     7
100
AcDbLine
 10
414.11
 20
296.0
 30
0.0
 11
414.11
 21
295.0
 31
0.0
  0
LINE
  5
1F3
100
AcDbEntity
  8
1031
370
    30
  6
Continuous
 62
     7
100
AcDbLine
 10
414.11
 20
282.0
 30
0.0
 11
414.11
 21
283.0
 31
0.0
  0
LINE
  5
1F4
100
AcDbEntity
  8
1031
370
    30
  6
Continuous
 62
     7
100
AcDbLine
 10
418.11
 20
282.0
 30
0.0
 11
418.11
 21
283.0
 31
0.0
  0
LINE
  5
1F5
100
AcDbEntity
  8
1031
370
    30
  6
Continuous
 62
     7
100
AcDbLine
 10
418.11
 20
296.0
 30
0.0
 11
418.11
 21
295.0
 31
0.0
  0
LINE
  5
1F6
100
AcDbEntity
  8
1031
370
    30
  6
Continuous
 62
     7
100
AcDbLine
 10
421.42
 20
288.5
 30
0.0
 11
420.42
 21
288.5
 31
0.0
  0
LINE
  5
1F7
100
AcDbEntity
  8
1031
370
    30
  6
Continuous
 62
     7
100
AcDbLine
 10
420.42
 20
288.5
 30
0.0
 11
420.42
 21
287.5
 31
0.0
  0
LINE
  5
1F8
100
AcDbEntity
  8
1031
370
    30
  6
Continuous
 62
     7
100
AcDbLine
 10
419.42
 20
287.5
 30
0.0
 11
419.42
 21
288.5
 31
0.0
  0
LINE
  5
1F9
100
AcDbEntity
  8
1031
370
    30
  6
Continuous
 62
     7
100
AcDbLine
 10
419.42
 20
288.5
 30
0.0
 11
418.42
 21
288.5
 31
0.0
  0
LINE
  5
1FA
100
AcDbEntity
  8
1031
370
    30
  6
Continuous
 62
     7
100
AcDbLine
 10
421.42
 20
289.5
 30
0.0
 11
420.42
 21
289.5
 31
0.0
  0
LINE
  5
1FB
100
AcDbEntity
  8
1031
370
    30
  6
Continuous
 62
     7
100
AcDbLine
 10
420.42
 20
289.5
 30
0.0
 11
420.42
 21
290.5
 31
0.0
  0
LINE
  5
1FC
100
AcDbEntity
  8
1031
370
    30
  6
Continuous
 62
     7
100
AcDbLine
 10
419.42
 20
290.5
 30
0.0
 11
419.42
 21
289.5
 31
0.0
  0
LINE
  5
1FD
100
AcDbEntity
  8
1031
370
    30
  6
Continuous
 62
     7
100
AcDbLine
 10
419.42
 20
289.5
 30
0.0
 11
418.42
 21
289.5
 31
0.0
  0
CIRCLE
  5
1FE
100
AcDbEntity
  8
1031
370
    30
  6
Continuous
 62
     7
100
AcDbCircle
 10
419.92
 20
289.0
 30
0.0
 40
2.5
  0
LINE
  5
1FF
100
AcDbEntity
  8
1031
370
    30
  6
Continuous
 62
     7
100
AcDbLine
 10
423.23
 20
283.0
 30
0.0
 11
416.61
 21
283.0
 31
0.0
  0
LINE
  5
200
100
AcDbEntity
  8
1031
370
    30
  6
Continuous
 62
     7
100
AcDbLine
 10
423.23
 20
284.5
 30
0.0
 11
416.61
 21
284.5
 31
0.0
  0
LINE
  5
201
100
AcDbEntity
  8
1031
370
    30
  6
Continuous
 62
     7
100
AcDbLine
 10
423.23
 20
293.5
 30
0.0
 11
416.61
 21
293.5
 31
0.0
  0
LINE
  5
202
100
AcDbEntity
  8
1031
370
    30
  6
Continuous
 62
     7
100
AcDbLine
 10
423.23
 20
295.0
 30
0.0
 11
416.61
 21
295.0
 31
0.0
  0
LINE
  5
203
100
AcDbEntity
  8
1031
370
    30
  6
Continuous
 62
     7
100
AcDbLine
 10
416.61
 20
282.0
 30
0.0
 11
416.61
 21
296.0
 31
0.0
  0
LINE
  5
204
100
AcDbEntity
  8
1031
370
    30
  6
Continuous
 62
     7
100
AcDbLine
 10
418.11
 20
296.0
 30
0.0
 11
414.11
 21
296.0
 31
0.0
  0
LINE
  5
205
100
AcDbEntity
  8
1031
370
    30
  6
Continuous
 62
     7
100
AcDbLine
 10
418.11
 20
282.0
 30
0.0
 11
414.11
 21
282.0
 31
0.0
  0
LINE
  5
206
100
AcDbEntity
  8
1031
370
    30
  6
Continuous
 62
     7
100
AcDbLine
 10
287.5
 20
306.5
 30
0.0
 11
287.5
 21
312.0
 31
0.0
  0
LINE
  5
207
100
AcDbEntity
  8
1031
370
    30
  6
Continuous
 62
     7
100
AcDbLine
 10
297.5
 20
306.5
 30
0.0
 11
297.5
 21
312.0
 31
0.0
  0
LINE
  5
208
100
AcDbEntity
  8
1031
370
    30
  6
Continuous
 62
     7
100
AcDbLine
 10
297.5
 20
306.5
 30
0.0
 11
287.5
 21
306.5
 31
0.0
  0
LINE
  5
209
100
AcDbEntity
  8
1031
370
    30
  6
Continuous
 62
     7
100
AcDbLine
 10
297.5
 20
312.0
 30
0.0
 11
287.5
 21
312.0
 31
0.0
  0
LINE
  5
20A
100
AcDbEntity
  8
1031
370
    30
  6
Continuous
 62
     7
100
AcDbLine
 10
275.0
 20
306.5
 30
0.0
 11
275.0
 21
312.0
 31
0.0
  0
LINE
  5
20B
100
AcDbEntity
  8
1031
370
    30
  6
Continuous
 62
     7
100
AcDbLine
 10
285.0
 20
306.5
 30
0.0
 11
285.0
 21
312.0
 31
0.0
  0
LINE
  5
20C
100
AcDbEntity
  8
1031
370
    30
  6
Continuous
 62
     7
100
AcDbLine
 10
285.0
 20
306.5
 30
0.0
 11
275.0
 21
306.5
 31
0.0
  0
LINE
  5
20D
100
AcDbEntity
  8
1031
370
    30
  6
Continuous
 62
     7
100
AcDbLine
 10
285.0
 20
312.0
 30
0.0
 11
275.0
 21
312.0
 31
0.0
  0
LINE
  5
20E
100
AcDbEntity
  8
1031
370
    30
  6
Continuous
 62
     7
100
AcDbLine
 10
276.0
 20
313.0
 30
0.0
 11
276.0
 21
315.0
 31
0.0
  0
LINE
  5
20F
100
AcDbEntity
  8
1031
370
    30
  6
Continuous
 62
     7
100
AcDbLine
 10
278.0
 20
315.0
 30
0.0
 11
276.0
 21
315.0
 31
0.0
  0
LINE
  5
210
100
AcDbEntity
  8
1031
370
    30
  6
Continuous
 62
     7
100
AcDbLine
 10
294.5
 20
315.0
 30
0.0
 11
296.5
 21
315.0
 31
0.0
  0
LINE
  5
211
100
AcDbEntity
  8
1031
370
    30
  6
Continuous
 62
     7
100
AcDbLine
 10
296.5
 20
315.0
 30
0.0
 11
296.5
 21
313.0
 31
0.0
  0
CIRCLE
  5
212
100
AcDbEntity
  8
1031
370
    30
  6
Continuous
 62
     7
100
AcDbCircle
 10
525.5
 20
384.0
 30
0.0
 40
3.0
  0
CIRCLE
  5
213
100
AcDbEntity
  8
1031
370
    30
  6
Continuous
 62
     7
100
AcDbCircle
 10
525.5
 20
295.0
 30
0.0
 40
3.0
  0
LINE
  5
214
100
AcDbEntity
  8
1031
370
    30
  6
Continuous
 62
     7
100
AcDbLine
 10
426.0
 20
387.0
 30
0.0
 11
426.3
 21
387.0
 31
0.0
  0
LINE
  5
215
100
AcDbEntity
  8
1031
370
    30
  6
Continuous
 62
     7
100
AcDbLine
 10
426.0
 20
381.0
 30
0.0
 11
426.3
 21
381.0
 31
0.0
  0
ARC
  5
216
100
AcDbEntity
  8
1031
370
    30
  6
Continuous
 62
     7
100
AcDbCircle
 10
423.15
 20
384.0
 30
0.0
 40
4.35
100
AcDbArc
 50
-43.602819
 51
43.602819
  0
LINE
  5
217
100
AcDbEntity
  8
1031
370
    30
  6
Continuous
 62
     7
100
AcDbLine
 10
426.0
 20
298.0
 30
0.0
 11
426.3
 21
298.0
 31
0.0
  0
LINE
  5
218
100
AcDbEntity
  8
1031
370
    30
  6
Continuous
 62
     7
100
AcDbLine
 10
426.0
 20
292.0
 30
0.0
 11
426.3
 21
292.0
 31
0.0
  0
ARC
  5
219
100
AcDbEntity
  8
1031
370
    30
  6
Continuous
 62
     7
100
AcDbCircle
 10
423.15
 20
295.0
 30
0.0
 40
4.35
100
AcDbArc
 50
-43.602819
 51
43.602819
  0
LINE
  5
21A
100
AcDbEntity
  8
1031
370
    30
  6
Continuous
 62
     7
100
AcDbLine
 10
272.0
 20
292.0
 30
0.0
 11
271.7
 21
292.0
 31
0.0
  0
LINE
  5
21B
100
AcDbEntity
  8
1031
370
    30
  6
Continuous
 62
     7
100
AcDbLine
 10
272.0
 20
298.0
 30
0.0
 11
271.7
 21
298.0
 31
0.0
  0
ARC
  5
21C
100
AcDbEntity
  8
1031
370
    30
  6
Continuous
 62
     7
100
AcDbCircle
 10
274.85
 20
295.0
 30
0.0
 40
4.35
100
AcDbArc
 50
136.397181
 51
-136.397181
  0
LINE
  5
21D
100
AcDbEntity
  8
1031
370
    30
  6
Continuous
 62
     7
100
AcDbLine
 10
272.0
 20
381.0
 30
0.0
 11
271.7
 21
381.0
 31
0.0
  0
LINE
  5
21E
100
AcDbEntity
  8
1031
370
    30
  6
Continuous
 62
     7
100
AcDbLine
 10
272.0
 20
387.0
 30
0.0
 11
271.7
 21
387.0
 31
0.0
  0
ARC
  5
21F
100
AcDbEntity
  8
1031
370
    30
  6
Continuous
 62
     7
100
AcDbCircle
 10
274.85
 20
384.0
 30
0.0
 40
4.35
100
AcDbArc
 50
136.397181
 51
-136.397181
  0
LINE
  5
220
100
AcDbEntity
  8
1031
370
    30
  6
Continuous
 62
     7
100
AcDbLine
 10
272.8
 20
297.0
 30
0.0
 11
272.8
 21
282.0
 31
0.0
  0
LINE
  5
221
100
AcDbEntity
  8
1031
370
    30
  6
Continuous
 62
     7
100
AcDbLine
 10
425.2
 20
297.0
 30
0.0
 11
425.2
 21
282.0
 31
0.0
  0
LINE
  5
222
100
AcDbEntity
  8
1031
370
    30
  6
Continuous
 62
     7
100
AcDbLine
 10
516.8
 20
282.0
 30
0.0
 11
514.8
 21
284.0
 31
0.0
  0
LINE
  5
223
100
AcDbEntity
  8
1031
370
    30
  6
Continuous
 62
     7
100
AcDbLine
 10
503.5
 20
297.0
 30
0.0
 11
514.8
 21
297.0
 31
0.0
  0
LINE
  5
224
100
AcDbEntity
  8
1031
370
    30
  6
Continuous
 62
     7
100
AcDbLine
 10
514.8
 20
284.0
 30
0.0
 11
514.8
 21
297.0
 31
0.0
  0
LINE
  5
225
100
AcDbEntity
  8
1031
370
    30
  6
Continuous
 62
     7
100
AcDbLine
 10
506.9
 20
295.268861
 30
0.0
 11
506.9
 21
282.731139
 31
0.0
  0
LINE
  5
226
100
AcDbEntity
  8
1031
370
    30
  6
Continuous
 62
     7
100
AcDbLine
 10
507.380783
 20
282.231508
 30
0.0
 11
513.4
 21
282.0
 31
0.0
  0
LINE
  5
227
100
AcDbEntity
  8
1031
370
    30
  6
Continuous
 62
     7
100
AcDbLine
 10
507.380783
 20
295.768492
 30
0.0
 11
513.4
 21
296.0
 31
0.0
  0
LINE
  5
228
100
AcDbEntity
  8
1031
370
    30
  6
Continuous
 62
     7
100
AcDbLine
 10
513.4
 20
296.0
 30
0.0
 11
514.8
 21
296.0
 31
0.0
  0
ARC
  5
229
100
AcDbEntity
  8
1031
370
    30
  6
Continuous
 62
     7
100
AcDbCircle
 10
507.4
 20
295.268861
 30
0.0
 40
0.5
100
AcDbArc
 50
92.202598
 51
180.0
  0
ARC
  5
22A
100
AcDbEntity
  8
1031
370
    30
  6
Continuous
 62
     7
100
AcDbCircle
 10
507.4
 20
282.731139
 30
0.0
 40
0.5
100
AcDbArc
 50
180.0
 51
-92.202598
  0
LINE
  5
22B
100
AcDbEntity
  8
1031
370
    30
  6
Continuous
 62
     7
100
AcDbLine
 10
290.65
 20
381.0
 30
0.0
 11
295.525
 21
381.0
 31
0.0
  0
LINE
  5
22C
100
AcDbEntity
  8
1031
370
    30
  6
Continuous
 62
     7
100
AcDbLine
 10
303.775
 20
381.0
 30
0.0
 11
308.65
 21
381.0
 31
0.0
  0
LINE
  5
22D
100
AcDbEntity
  8
1031
370
    30
  6
Continuous
 62
     7
100
AcDbLine
 10
312.85
 20
381.0
 30
0.0
 11
317.725
 21
381.0
 31
0.0
  0
LINE
  5
22E
100
AcDbEntity
  8
1031
370
    30
  6
Continuous
 62
     7
100
AcDbLine
 10
325.975
 20
381.0
 30
0.0
 11
330.85
 21
381.0
 31
0.0
  0
LINE
  5
22F
100
AcDbEntity
  8
1031
370
    30
  6
Continuous
 62
     7
100
AcDbLine
 10
335.05
 20
381.0
 30
0.0
 11
337.075
 21
381.0
 31
0.0
  0
LINE
  5
230
100
AcDbEntity
  8
1031
370
    30
  6
Continuous
 62
     7
100
AcDbLine
 10
347.325
 20
381.0
 30
0.0
 11
349.35
 21
381.0
 31
0.0
  0
LINE
  5
231
100
AcDbEntity
  8
1031
370
    30
  6
Continuous
 62
     7
100
AcDbLine
 10
290.65
 20
381.0
 30
0.0
 11
290.65
 21
380.0
 31
0.0
  0
LINE
  5
232
100
AcDbEntity
  8
1031
370
    30
  6
Continuous
 62
     7
100
AcDbLine
 10
308.65
 20
381.0
 30
0.0
 11
308.65
 21
380.0
 31
0.0
  0
LINE
  5
233
100
AcDbEntity
  8
1031
370
    30
  6
Continuous
 62
     7
100
AcDbLine
 10
312.85
 20
381.0
 30
0.0
 11
312.85
 21
380.0
 31
0.0
  0
LINE
  5
234
100
AcDbEntity
  8
1031
370
    30
  6
Continuous
 62
     7
100
AcDbLine
 10
330.85
 20
381.0
 30
0.0
 11
330.85
 21
380.0
 31
0.0
  0
LINE
  5
235
100
AcDbEntity
  8
1031
370
    30
  6
Continuous
 62
     7
100
AcDbLine
 10
335.05
 20
381.0
 30
0.0
 11
335.05
 21
380.0
 31
0.0
  0
LINE
  5
236
100
AcDbEntity
  8
1031
370
    30
  6
Continuous
 62
     7
100
AcDbLine
 10
349.35
 20
381.0
 30
0.0
 11
349.35
 21
380.0
 31
0.0
  0
LINE
  5
237
100
AcDbEntity
  8
1031
370
    30
  6
Continuous
 62
     7
100
AcDbLine
 10
290.65
 20
381.0
 30
0.0
 11
295.525
 21
381.0
 31
0.0
  0
LINE
  5
238
100
AcDbEntity
  8
1031
370
    30
  6
Continuous
 62
     7
100
AcDbLine
 10
303.775
 20
381.0
 30
0.0
 11
308.65
 21
381.0
 31
0.0
  0
LINE
  5
239
100
AcDbEntity
  8
1031
370
    30
  6
Continuous
 62
     7
100
AcDbLine
 10
290.65
 20
381.0
 30
0.0
 11
290.65
 21
380.0
 31
0.0
  0
LINE
  5
23A
100
AcDbEntity
  8
1031
370
    30
  6
Continuous
 62
     7
100
AcDbLine
 10
308.65
 20
381.0
 30
0.0
 11
308.65
 21
380.0
 31
0.0
  0
LINE
  5
23B
100
AcDbEntity
  8
1031
370
    30
  6
Continuous
 62
     7
100
AcDbLine
 10
279.0
 20
384.0
 30
0.0
 11
361.0
 21
384.0
 31
0.0
  0
LINE
  5
23C
100
AcDbEntity
  8
1031
370
    30
  6
Continuous
 62
     7
100
AcDbLine
 10
361.0
 20
384.0
 30
0.0
 11
361.0
 21
354.0
 31
0.0
  0
LINE
  5
23D
100
AcDbEntity
  8
1031
370
    30
  6
Continuous
 62
     7
100
AcDbLine
 10
361.0
 20
354.0
 30
0.0
 11
279.0
 21
354.0
 31
0.0
  0
LINE
  5
23E
100
AcDbEntity
  8
1031
370
    30
  6
Continuous
 62
     7
100
AcDbLine
 10
279.0
 20
354.0
 30
0.0
 11
279.0
 21
384.0
 31
0.0
  0
LINE
  5
23F
100
AcDbEntity
  8
1031
370
    30
  6
Continuous
 62
     7
100
AcDbLine
 10
290.65
 20
357.0
 30
0.0
 11
294.95
 21
357.0
 31
0.0
  0
LINE
  5
240
100
AcDbEntity
  8
1031
370
    30
  6
Continuous
 62
     7
100
AcDbLine
 10
314.45
 20
357.0
 30
0.0
 11
318.75
 21
357.0
 31
0.0
  0
LINE
  5
241
100
AcDbEntity
  8
1031
370
    30
  6
Continuous
 62
     7
100
AcDbLine
 10
321.25
 20
361.0
 30
0.0
 11
323.05
 21
361.0
 31
0.0
  0
LINE
  5
242
100
AcDbEntity
  8
1031
370
    30
  6
Continuous
 62
     7
100
AcDbLine
 10
347.55
 20
361.0
 30
0.0
 11
349.35
 21
361.0
 31
0.0
  0
LINE
  5
243
100
AcDbEntity
  8
1031
370
    30
  6
Continuous
 62
     7
100
AcDbLine
 10
321.25
 20
357.0
 30
0.0
 11
328.05
 21
357.0
 31
0.0
  0
LINE
  5
244
100
AcDbEntity
  8
1031
370
    30
  6
Continuous
 62
     7
100
AcDbLine
 10
342.55
 20
357.0
 30
0.0
 11
349.35
 21
357.0
 31
0.0
  0
LINE
  5
245
100
AcDbEntity
  8
1031
370
    30
  6
Continuous
 62
     7
100
AcDbLine
 10
290.65
 20
357.0
 30
0.0
 11
290.65
 21
358.0
 31
0.0
  0
LINE
  5
246
100
AcDbEntity
  8
1031
370
    30
  6
Continuous
 62
     7
100
AcDbLine
 10
318.75
 20
357.0
 30
0.0
 11
318.75
 21
358.0
 31
0.0
  0
LINE
  5
247
100
AcDbEntity
  8
1031
370
    30
  6
Continuous
 62
     7
100
AcDbLine
 10
321.25
 20
361.0
 30
0.0
 11
321.25
 21
362.0
 31
0.0
  0
LINE
  5
248
100
AcDbEntity
  8
1031
370
    30
  6
Continuous
 62
     7
100
AcDbLine
 10
321.25
 20
357.0
 30
0.0
 11
321.25
 21
358.0
 31
0.0
  0
LINE
  5
249
100
AcDbEntity
  8
1031
370
    30
  6
Continuous
 62
     7
100
AcDbLine
 10
349.35
 20
361.0
 30
0.0
 11
349.35
 21
362.0
 31
0.0
  0
LINE
  5
24A
100
AcDbEntity
  8
1031
370
    30
  6
Continuous
 62
     7
100
AcDbLine
 10
349.35
 20
357.0
 30
0.0
 11
349.35
 21
358.0
 31
0.0
  0
LINE
  5
24B
100
AcDbEntity
  8
1031
370
    30
  6
Continuous
 62
     7
100
AcDbLine
 10
290.65
 20
361.0
 30
0.0
 11
297.45
 21
361.0
 31
0.0
  0
LINE
  5
24C
100
AcDbEntity
  8
1031
370
    30
  6
Continuous
 62
     7
100
AcDbLine
 10
311.95
 20
361.0
 30
0.0
 11
318.75
 21
361.0
 31
0.0
  0
LINE
  5
24D
100
AcDbEntity
  8
1031
370
    30
  6
Continuous
 62
     7
100
AcDbLine
 10
321.25
 20
357.0
 30
0.0
 11
328.05
 21
357.0
 31
0.0
  0
LINE
  5
24E
100
AcDbEntity
  8
1031
370
    30
  6
Continuous
 62
     7
100
AcDbLine
 10
342.55
 20
357.0
 30
0.0
 11
349.35
 21
357.0
 31
0.0
  0
LINE
  5
24F
100
AcDbEntity
  8
1031
370
    30
  6
Continuous
 62
     7
100
AcDbLine
 10
290.65
 20
361.0
 30
0.0
 11
290.65
 21
362.0
 31
0.0
  0
LINE
  5
250
100
AcDbEntity
  8
1031
370
    30
  6
Continuous
 62
     7
100
AcDbLine
 10
318.75
 20
361.0
 30
0.0
 11
318.75
 21
362.0
 31
0.0
  0
LINE
  5
251
100
AcDbEntity
  8
1031
370
    30
  6
Continuous
 62
     7
100
AcDbLine
 10
321.25
 20
357.0
 30
0.0
 11
321.25
 21
358.0
 31
0.0
  0
LINE
  5
252
100
AcDbEntity
  8
1031
370
    30
  6
Continuous
 62
     7
100
AcDbLine
 10
349.35
 20
357.0
 30
0.0
 11
349.35
 21
358.0
 31
0.0
  0
LINE
  5
253
100
AcDbEntity
  8
1031
370
    30
  6
Continuous
 62
     7
100
AcDbLine
 10
425.2
 20
199.0
 30
0.0
 11
272.8
 21
199.0
 31
0.0
  0
LINE
  5
254
100
AcDbEntity
  8
1031
370
    30
  6
Continuous
 62
     7
100
AcDbLine
 10
425.2
 20
224.0
 30
0.0
 11
425.2
 21
198.5
 31
0.0
  0
LINE
  5
255
100
AcDbEntity
  8
1031
370
    30
  6
Continuous
 62
     7
100
AcDbLine
 10
425.2
 20
207.1
 30
0.0
 11
272.8
 21
207.1
 31
0.0
  0
LINE
  5
256
100
AcDbEntity
  8
1031
370
    30
  6
Continuous
 62
     7
100
AcDbLine
 10
426.0
 20
225.0
 30
0.0
 11
272.0
 21
225.0
 31
0.0
  0
LINE
  5
257
100
AcDbEntity
  8
1031
370
    30
  6
Continuous
 62
     7
100
AcDbLine
 10
426.0
 20
225.0
 30
0.0
 11
426.0
 21
199.3
 31
0.0
  0
LINE
  5
258
100
AcDbEntity
  8
1031
370
    30
  6
Continuous
 62
     7
100
AcDbLine
 10
272.0
 20
225.0
 30
0.0
 11
272.0
 21
199.3
 31
0.0
  0
LINE
  5
259
100
AcDbEntity
  8
1031
370
    30
  6
Continuous
 62
     7
100
AcDbLine
 10
272.8
 20
224.0
 30
0.0
 11
272.8
 21
198.5
 31
0.0
  0
LINE
  5
25A
100
AcDbEntity
  8
1031
370
    30
  6
Continuous
 62
     7
100
AcDbLine
 10
265.0
 20
199.3
 30
0.0
 11
265.0
 21
198.5
 31
0.0
  0
LINE
  5
25B
100
AcDbEntity
  8
1031
370
    30
  6
Continuous
 62
     7
100
AcDbLine
 10
433.0
 20
199.3
 30
0.0
 11
433.0
 21
198.5
 31
0.0
  0
LINE
  5
25C
100
AcDbEntity
  8
1031
370
    30
  6
Continuous
 62
     7
100
AcDbLine
 10
272.0
 20
199.3
 30
0.0
 11
265.0
 21
199.3
 31
0.0
  0
LINE
  5
25D
100
AcDbEntity
  8
1031
370
    30
  6
Continuous
 62
     7
100
AcDbLine
 10
433.0
 20
199.3
 30
0.0
 11
426.0
 21
199.3
 31
0.0
  0
LINE
  5
25E
100
AcDbEntity
  8
1031
370
    30
  6
Continuous
 62
     7
100
AcDbLine
 10
265.0
 20
198.5
 30
0.0
 11
272.8
 21
198.5
 31
0.0
  0
LINE
  5
25F
100
AcDbEntity
  8
1031
370
    30
  6
Continuous
 62
     7
100
AcDbLine
 10
425.2
 20
198.5
 30
0.0
 11
433.0
 21
198.5
 31
0.0
  0
LINE
  5
260
100
AcDbEntity
  8
1031
370
    30
  6
Continuous
 62
     7
100
AcDbLine
 10
275.0
 20
207.1
 30
0.0
 11
275.0
 21
211.3
 31
0.0
  0
LINE
  5
261
100
AcDbEntity
  8
1031
370
    30
  6
Continuous
 62
     7
100
AcDbLine
 10
285.0
 20
207.1
 30
0.0
 11
285.0
 21
211.3
 31
0.0
  0
LINE
  5
262
100
AcDbEntity
  8
1031
370
    30
  6
Continuous
 62
     7
100
AcDbLine
 10
275.0
 20
211.3
 30
0.0
 11
285.0
 21
211.3
 31
0.0
  0
LINE
  5
263
100
AcDbEntity
  8
1031
370
    30
  6
Continuous
 62
     7
100
AcDbLine
 10
276.0
 20
211.3
 30
0.0
 11
276.0
 21
212.0
 31
0.0
  0
LINE
  5
264
100
AcDbEntity
  8
1031
370
    30
  6
Continuous
 62
     7
100
AcDbLine
 10
284.0
 20
211.3
 30
0.0
 11
284.0
 21
212.0
 31
0.0
  0
LINE
  5
265
100
AcDbEntity
  8
1031
370
    30
  6
Continuous
 62
     7
100
AcDbLine
 10
276.0
 20
212.0
 30
0.0
 11
284.0
 21
212.0
 31
0.0
  0
LINE
  5
266
100
AcDbEntity
  8
1031
370
    30
  6
Continuous
 62
     7
100
AcDbLine
 10
275.0
 20
208.8
 30
0.0
 11
285.0
 21
208.8
 31
0.0
  0
LINE
  5
267
100
AcDbEntity
  8
1031
370
    30
  6
Continuous
 62
     7
100
AcDbLine
 10
287.5
 20
207.1
 30
0.0
 11
287.5
 21
211.3
 31
0.0
  0
LINE
  5
268
100
AcDbEntity
  8
1031
370
    30
  6
Continuous
 62
     7
100
AcDbLine
 10
297.5
 20
207.1
 30
0.0
 11
297.5
 21
211.3
 31
0.0
  0
LINE
  5
269
100
AcDbEntity
  8
1031
370
    30
  6
Continuous
 62
     7
100
AcDbLine
 10
287.5
 20
211.3
 30
0.0
 11
297.5
 21
211.3
 31
0.0
  0
LINE
  5
26A
100
AcDbEntity
  8
1031
370
    30
  6
Continuous
 62
     7
100
AcDbLine
 10
288.5
 20
211.3
 30
0.0
 11
288.5
 21
212.0
 31
0.0
  0
LINE
  5
26B
100
AcDbEntity
  8
1031
370
    30
  6
Continuous
 62
     7
100
AcDbLine
 10
296.5
 20
211.3
 30
0.0
 11
296.5
 21
212.0
 31
0.0
  0
LINE
  5
26C
100
AcDbEntity
  8
1031
370
    30
  6
Continuous
 62
     7
100
AcDbLine
 10
288.5
 20
212.0
 30
0.0
 11
296.5
 21
212.0
 31
0.0
  0
LINE
  5
26D
100
AcDbEntity
  8
1031
370
    30
  6
Continuous
 62
     7
100
AcDbLine
 10
287.5
 20
208.8
 30
0.0
 11
297.5
 21
208.8
 31
0.0
  0
LINE
  5
26E
100
AcDbEntity
  8
1031
370
    30
  6
Continuous
 62
     7
100
AcDbLine
 10
348.84
 20
215.1
 30
0.0
 11
348.84
 21
216.6
 31
0.0
  0
LINE
  5
26F
100
AcDbEntity
  8
1031
370
    30
  6
Continuous
 62
     7
100
AcDbLine
 10
325.17
 20
221.6
 30
0.0
 11
324.17
 21
221.6
 31
0.0
  0
LINE
  5
270
100
AcDbEntity
  8
1031
370
    30
  6
Continuous
 62
     7
100
AcDbLine
 10
325.42
 20
210.1
 30
0.0
 11
325.17
 21
221.6
 31
0.0
  0
LINE
  5
271
100
AcDbEntity
  8
1031
370
    30
  6
Continuous
 62
     7
100
AcDbLine
 10
324.17
 20
221.6
 30
0.0
 11
323.92
 21
210.1
 31
0.0
  0
LINE
  5
272
100
AcDbEntity
  8
1031
370
    30
  6
Continuous
 62
     7
100
AcDbLine
 10
323.92
 20
210.1
 30
0.0
 11
323.92
 21
207.1
 31
0.0
  0
LINE
  5
273
100
AcDbEntity
  8
1031
370
    30
  6
Continuous
 62
     7
100
AcDbLine
 10
355.791304
 20
215.1
 30
0.0
 11
362.128696
 21
215.1
 31
0.0
  0
LINE
  5
274
100
AcDbEntity
  8
1031
370
    30
  6
Continuous
 62
     7
100
AcDbLine
 10
354.65
 20
221.6
 30
0.0
 11
355.65
 21
221.6
 31
0.0
  0
LINE
  5
275
100
AcDbEntity
  8
1031
370
    30
  6
Continuous
 62
     7
100
AcDbLine
 10
356.46
 20
216.6
 30
0.0
 11
356.46
 21
215.1
 31
0.0
  0
LINE
  5
276
100
AcDbEntity
  8
1031
370
    30
  6
Continuous
 62
     7
100
AcDbLine
 10
361.46
 20
215.1
 30
0.0
 11
361.46
 21
216.6
 31
0.0
  0
LINE
  5
277
100
AcDbEntity
  8
1031
370
    30
  6
Continuous
 62
     7
100
AcDbLine
 10
357.96
 20
218.1
 30
0.0
 11
359.96
 21
218.1
 31
0.0
  0
LINE
  5
278
100
AcDbEntity
  8
1031
370
    30
  6
Continuous
 62
     7
100
AcDbLine
 10
356.46
 20
216.1
 30
0.0
 11
361.46
 21
216.1
 31
0.0
  0
ARC
  5
279
100
AcDbEntity
  8
1031
370
    30
  6
Continuous
 62
     7
100
AcDbCircle
 10
357.96
 20
216.6
 30
0.0
 40
1.5
100
AcDbArc
 50
90.0
 51
180.0
  0
ARC
  5
27A
100
AcDbEntity
  8
1031
370
    30
  6
Continuous
 62
     7
100
AcDbCircle
 10
359.96
 20
216.6
 30
0.0
 40
1.5
100
AcDbArc
 50
0.0
 51
90.0
  0
LINE
  5
27B
100
AcDbEntity
  8
1031
370
    30
  6
Continuous
 62
     7
100
AcDbLine
 10
348.84
 20
216.6
 30
0.0
 11
348.84
 21
215.1
 31
0.0
  0
LINE
  5
27C
100
AcDbEntity
  8
1031
370
    30
  6
Continuous
 62
     7
100
AcDbLine
 10
353.84
 20
215.1
 30
0.0
 11
353.84
 21
216.6
 31
0.0
  0
LINE
  5
27D
100
AcDbEntity
  8
1031
370
    30
  6
Continuous
 62
     7
100
AcDbLine
 10
350.34
 20
218.1
 30
0.0
 11
352.34
 21
218.1
 31
0.0
  0
LINE
  5
27E
100
AcDbEntity
  8
1031
370
    30
  6
Continuous
 62
     7
100
AcDbLine
 10
348.84
 20
216.1
 30
0.0
 11
353.84
 21
216.1
 31
0.0
  0
ARC
  5
27F
100
AcDbEntity
  8
1031
370
    30
  6
Continuous
 62
     7
100
AcDbCircle
 10
350.34
 20
216.6
 30
0.0
 40
1.5
100
AcDbArc
 50
90.0
 51
180.0
  0
ARC
  5
280
100
AcDbEntity
  8
1031
370
    30
  6
Continuous
 62
     7
100
AcDbCircle
 10
352.34
 20
216.6
 30
0.0
 40
1.5
100
AcDbArc
 50
0.0
 51
90.0
  0
LINE
  5
281
100
AcDbEntity
  8
1031
370
    30
  6
Continuous
 62
     7
100
AcDbLine
 10
357.15
 20
210.1
 30
0.0
 11
357.15
 21
207.1
 31
0.0
  0
LINE
  5
282
100
AcDbEntity
  8
1031
370
    30
  6
Continuous
 62
     7
100
AcDbLine
 10
353.15
 20
210.1
 30
0.0
 11
353.15
 21
207.1
 31
0.0
  0
LINE
  5
283
100
AcDbEntity
  8
1031
370
    30
  6
Continuous
 62
     7
100
AcDbLine
 10
354.4
 20
210.1
 30
0.0
 11
354.65
 21
221.6
 31
0.0
  0
LINE
  5
284
100
AcDbEntity
  8
1031
370
    30
  6
Continuous
 62
     7
100
AcDbLine
 10
355.65
 20
221.6
 30
0.0
 11
355.9
 21
210.1
 31
0.0
  0
LINE
  5
285
100
AcDbEntity
  8
1031
370
    30
  6
Continuous
 62
     7
100
AcDbLine
 10
362.27
 20
221.6
 30
0.0
 11
363.27
 21
221.6
 31
0.0
  0
LINE
  5
286
100
AcDbEntity
  8
1031
370
    30
  6
Continuous
 62
     7
100
AcDbLine
 10
364.77
 20
210.1
 30
0.0
 11
364.77
 21
207.1
 31
0.0
  0
LINE
  5
287
100
AcDbEntity
  8
1031
370
    30
  6
Continuous
 62
     7
100
AcDbLine
 10
360.77
 20
210.1
 30
0.0
 11
360.77
 21
207.1
 31
0.0
  0
LINE
  5
288
100
AcDbEntity
  8
1031
370
    30
  6
Continuous
 62
     7
100
AcDbLine
 10
362.02
 20
210.1
 30
0.0
 11
362.27
 21
221.6
 31
0.0
  0
LINE
  5
289
100
AcDbEntity
  8
1031
370
    30
  6
Continuous
 62
     7
100
AcDbLine
 10
363.27
 20
221.6
 30
0.0
 11
363.52
 21
210.1
 31
0.0
  0
LINE
  5
28A
100
AcDbEntity
  8
1031
370
    30
  6
Continuous
 62
     7
100
AcDbLine
 10
348.171304
 20
215.1
 30
0.0
 11
354.508696
 21
215.1
 31
0.0
  0
LINE
  5
28B
100
AcDbEntity
  8
1031
370
    30
  6
Continuous
 62
     7
100
AcDbLine
 10
371.031304
 20
215.1
 30
0.0
 11
377.368696
 21
215.1
 31
0.0
  0
LINE
  5
28C
100
AcDbEntity
  8
1031
370
    30
  6
Continuous
 62
     7
100
AcDbLine
 10
369.89
 20
221.6
 30
0.0
 11
370.89
 21
221.6
 31
0.0
  0
LINE
  5
28D
100
AcDbEntity
  8
1031
370
    30
  6
Continuous
 62
     7
100
AcDbLine
 10
371.7
 20
216.6
 30
0.0
 11
371.7
 21
215.1
 31
0.0
  0
LINE
  5
28E
100
AcDbEntity
  8
1031
370
    30
  6
Continuous
 62
     7
100
AcDbLine
 10
376.7
 20
215.1
 30
0.0
 11
376.7
 21
216.6
 31
0.0
  0
LINE
  5
28F
100
AcDbEntity
  8
1031
370
    30
  6
Continuous
 62
     7
100
AcDbLine
 10
373.2
 20
218.1
 30
0.0
 11
375.2
 21
218.1
 31
0.0
  0
LINE
  5
290
100
AcDbEntity
  8
1031
370
    30
  6
Continuous
 62
     7
100
AcDbLine
 10
371.7
 20
216.1
 30
0.0
 11
376.7
 21
216.1
 31
0.0
  0
ARC
  5
291
100
AcDbEntity
  8
1031
370
    30
  6
Continuous
 62
     7
100
AcDbCircle
 10
373.2
 20
216.6
 30
0.0
 40
1.5
100
AcDbArc
 50
90.0
 51
180.0
  0
ARC
  5
292
100
AcDbEntity
  8
1031
370
    30
  6
Continuous
 62
     7
100
AcDbCircle
 10
375.2
 20
216.6
 30
0.0
 40
1.5
100
AcDbArc
 50
0.0
 51
90.0
  0
LINE
  5
293
100
AcDbEntity
  8
1031
370
    30
  6
Continuous
 62
     7
100
AcDbLine
 10
363.411304
 20
215.1
 30
0.0
 11
369.748696
 21
215.1
 31
0.0
  0
LINE
  5
294
100
AcDbEntity
  8
1031
370
    30
  6
Continuous
 62
     7
100
AcDbLine
 10
364.08
 20
216.6
 30
0.0
 11
364.08
 21
215.1
 31
0.0
  0
LINE
  5
295
100
AcDbEntity
  8
1031
370
    30
  6
Continuous
 62
     7
100
AcDbLine
 10
369.08
 20
215.1
 30
0.0
 11
369.08
 21
216.6
 31
0.0
  0
LINE
  5
296
100
AcDbEntity
  8
1031
370
    30
  6
Continuous
 62
     7
100
AcDbLine
 10
365.58
 20
218.1
 30
0.0
 11
367.58
 21
218.1
 31
0.0
  0
LINE
  5
297
100
AcDbEntity
  8
1031
370
    30
  6
Continuous
 62
     7
100
AcDbLine
 10
364.08
 20
216.1
 30
0.0
 11
369.08
 21
216.1
 31
0.0
  0
ARC
  5
298
100
AcDbEntity
  8
1031
370
    30
  6
Continuous
 62
     7
100
AcDbCircle
 10
365.58
 20
216.6
 30
0.0
 40
1.5
100
AcDbArc
 50
90.0
 51
180.0
  0
ARC
  5
299
100
AcDbEntity
  8
1031
370
    30
  6
Continuous
 62
     7
100
AcDbCircle
 10
367.58
 20
216.6
 30
0.0
 40
1.5
100
AcDbArc
 50
0.0
 51
90.0
  0
LINE
  5
29A
100
AcDbEntity
  8
1031
370
    30
  6
Continuous
 62
     7
100
AcDbLine
 10
372.39
 20
210.1
 30
0.0
 11
372.39
 21
207.1
 31
0.0
  0
LINE
  5
29B
100
AcDbEntity
  8
1031
370
    30
  6
Continuous
 62
     7
100
AcDbLine
 10
368.39
 20
210.1
 30
0.0
 11
368.39
 21
207.1
 31
0.0
  0
LINE
  5
29C
100
AcDbEntity
  8
1031
370
    30
  6
Continuous
 62
     7
100
AcDbLine
 10
369.64
 20
210.1
 30
0.0
 11
369.89
 21
221.6
 31
0.0
  0
LINE
  5
29D
100
AcDbEntity
  8
1031
370
    30
  6
Continuous
 62
     7
100
AcDbLine
 10
370.89
 20
221.6
 30
0.0
 11
371.14
 21
210.1
 31
0.0
  0
LINE
  5
29E
100
AcDbEntity
  8
1031
370
    30
  6
Continuous
 62
     7
100
AcDbLine
 10
423.23
 20
221.6
 30
0.0
 11
424.23
 21
221.6
 31
0.0
  0
LINE
  5
29F
100
AcDbEntity
  8
1031
370
    30
  6
Continuous
 62
     7
100
AcDbLine
 10
421.73
 20
210.1
 30
0.0
 11
424.48
 21
210.1
 31
0.0
  0
LINE
  5
2A0
100
AcDbEntity
  8
1031
370
    30
  6
Continuous
 62
     7
100
AcDbLine
 10
421.73
 20
210.1
 30
0.0
 11
421.73
 21
207.1
 31
0.0
  0
LINE
  5
2A1
100
AcDbEntity
  8
1031
370
    30
  6
Continuous
 62
     7
100
AcDbLine
 10
422.98
 20
210.1
 30
0.0
 11
423.23
 21
221.6
 31
0.0
  0
LINE
  5
2A2
100
AcDbEntity
  8
1031
370
    30
  6
Continuous
 62
     7
100
AcDbLine
 10
424.23
 20
221.6
 30
0.0
 11
424.48
 21
210.1
 31
0.0
  0
LINE
  5
2A3
100
AcDbEntity
  8
1031
370
    30
  6
Continuous
 62
     7
100
AcDbLine
 10
424.48
 20
210.1
 30
0.0
 11
424.48
 21
207.1
 31
0.0
  0
LINE
  5
2A4
100
AcDbEntity
  8
1031
370
    30
  6
Continuous
 62
     7
100
AcDbLine
 10
326.67
 20
210.1
 30
0.0
 11
323.92
 21
210.1
 31
0.0
  0
LINE
  5
2A5
100
AcDbEntity
  8
1031
370
    30
  6
Continuous
 62
     7
100
AcDbLine
 10
357.15
 20
210.1
 30
0.0
 11
353.15
 21
210.1
 31
0.0
  0
LINE
  5
2A6
100
AcDbEntity
  8
1031
370
    30
  6
Continuous
 62
     7
100
AcDbLine
 10
364.77
 20
210.1
 30
0.0
 11
360.77
 21
210.1
 31
0.0
  0
LINE
  5
2A7
100
AcDbEntity
  8
1031
370
    30
  6
Continuous
 62
     7
100
AcDbLine
 10
372.39
 20
210.1
 30
0.0
 11
368.39
 21
210.1
 31
0.0
  0
LINE
  5
2A8
100
AcDbEntity
  8
1031
370
    30
  6
Continuous
 62
     7
100
AcDbLine
 10
377.490435
 20
220.7
 30
0.0
 11
370.909565
 21
220.7
 31
0.0
  0
LINE
  5
2A9
100
AcDbEntity
  8
1031
370
    30
  6
Continuous
 62
     7
100
AcDbLine
 10
369.870435
 20
220.7
 30
0.0
 11
363.289565
 21
220.7
 31
0.0
  0
LINE
  5
2AA
100
AcDbEntity
  8
1031
370
    30
  6
Continuous
 62
     7
100
AcDbLine
 10
362.250435
 20
220.7
 30
0.0
 11
355.669565
 21
220.7
 31
0.0
  0
LINE
  5
2AB
100
AcDbEntity
  8
1031
370
    30
  6
Continuous
 62
     7
100
AcDbLine
 10
354.630435
 20
220.7
 30
0.0
 11
348.049565
 21
220.7
 31
0.0
  0
LINE
  5
2AC
100
AcDbEntity
  8
1031
370
    30
  6
Continuous
 62
     7
100
AcDbLine
 10
354.647826
 20
221.5
 30
0.0
 11
348.032174
 21
221.5
 31
0.0
  0
LINE
  5
2AD
100
AcDbEntity
  8
1031
370
    30
  6
Continuous
 62
     7
100
AcDbLine
 10
362.267826
 20
221.5
 30
0.0
 11
355.652174
 21
221.5
 31
0.0
  0
LINE
  5
2AE
100
AcDbEntity
  8
1031
370
    30
  6
Continuous
 62
     7
100
AcDbLine
 10
369.887826
 20
221.5
 30
0.0
 11
363.272174
 21
221.5
 31
0.0
  0
LINE
  5
2AF
100
AcDbEntity
  8
1031
370
    30
  6
Continuous
 62
     7
100
AcDbLine
 10
377.507826
 20
221.5
 30
0.0
 11
370.892174
 21
221.5
 31
0.0
  0
LINE
  5
2B0
100
AcDbEntity
  8
1031
370
    30
  6
Continuous
 62
     7
100
AcDbLine
 10
341.22
 20
215.1
 30
0.0
 11
341.22
 21
216.6
 31
0.0
  0
LINE
  5
2B1
100
AcDbEntity
  8
1031
370
    30
  6
Continuous
 62
     7
100
AcDbLine
 10
341.22
 20
216.6
 30
0.0
 11
341.22
 21
215.1
 31
0.0
  0
LINE
  5
2B2
100
AcDbEntity
  8
1031
370
    30
  6
Continuous
 62
     7
100
AcDbLine
 10
346.22
 20
215.1
 30
0.0
 11
346.22
 21
216.6
 31
0.0
  0
LINE
  5
2B3
100
AcDbEntity
  8
1031
370
    30
  6
Continuous
 62
     7
100
AcDbLine
 10
342.72
 20
218.1
 30
0.0
 11
344.72
 21
218.1
 31
0.0
  0
LINE
  5
2B4
100
AcDbEntity
  8
1031
370
    30
  6
Continuous
 62
     7
100
AcDbLine
 10
341.22
 20
216.1
 30
0.0
 11
346.22
 21
216.1
 31
0.0
  0
ARC
  5
2B5
100
AcDbEntity
  8
1031
370
    30
  6
Continuous
 62
     7
100
AcDbCircle
 10
342.72
 20
216.6
 30
0.0
 40
1.5
100
AcDbArc
 50
90.0
 51
180.0
  0
ARC
  5
2B6
100
AcDbEntity
  8
1031
370
    30
  6
Continuous
 62
     7
100
AcDbCircle
 10
344.72
 20
216.6
 30
0.0
 40
1.5
100
AcDbArc
 50
0.0
 51
90.0
  0
LINE
  5
2B7
100
AcDbEntity
  8
1031
370
    30
  6
Continuous
 62
     7
100
AcDbLine
 10
345.53
 20
210.1
 30
0.0
 11
345.53
 21
207.1
 31
0.0
  0
LINE
  5
2B8
100
AcDbEntity
  8
1031
370
    30
  6
Continuous
 62
     7
100
AcDbLine
 10
346.78
 20
210.1
 30
0.0
 11
347.03
 21
221.6
 31
0.0
  0
LINE
  5
2B9
100
AcDbEntity
  8
1031
370
    30
  6
Continuous
 62
     7
100
AcDbLine
 10
340.551304
 20
215.1
 30
0.0
 11
346.888696
 21
215.1
 31
0.0
  0
LINE
  5
2BA
100
AcDbEntity
  8
1031
370
    30
  6
Continuous
 62
     7
100
AcDbLine
 10
347.010435
 20
220.7
 30
0.0
 11
340.429565
 21
220.7
 31
0.0
  0
LINE
  5
2BB
100
AcDbEntity
  8
1031
370
    30
  6
Continuous
 62
     7
100
AcDbLine
 10
347.027826
 20
221.5
 30
0.0
 11
340.412174
 21
221.5
 31
0.0
  0
LINE
  5
2BC
100
AcDbEntity
  8
1031
370
    30
  6
Continuous
 62
     7
100
AcDbLine
 10
349.53
 20
210.1
 30
0.0
 11
345.53
 21
210.1
 31
0.0
  0
LINE
  5
2BD
100
AcDbEntity
  8
1031
370
    30
  6
Continuous
 62
     7
100
AcDbLine
 10
349.53
 20
210.1
 30
0.0
 11
349.53
 21
207.1
 31
0.0
  0
LINE
  5
2BE
100
AcDbEntity
  8
1031
370
    30
  6
Continuous
 62
     7
100
AcDbLine
 10
348.03
 20
221.6
 30
0.0
 11
348.28
 21
210.1
 31
0.0
  0
LINE
  5
2BF
100
AcDbEntity
  8
1031
370
    30
  6
Continuous
 62
     7
100
AcDbLine
 10
347.03
 20
221.6
 30
0.0
 11
348.03
 21
221.6
 31
0.0
  0
LINE
  5
2C0
100
AcDbEntity
  8
1031
370
    30
  6
Continuous
 62
     7
100
AcDbLine
 10
333.6
 20
215.1
 30
0.0
 11
333.6
 21
216.6
 31
0.0
  0
LINE
  5
2C1
100
AcDbEntity
  8
1031
370
    30
  6
Continuous
 62
     7
100
AcDbLine
 10
333.6
 20
216.6
 30
0.0
 11
333.6
 21
215.1
 31
0.0
  0
LINE
  5
2C2
100
AcDbEntity
  8
1031
370
    30
  6
Continuous
 62
     7
100
AcDbLine
 10
338.6
 20
215.1
 30
0.0
 11
338.6
 21
216.6
 31
0.0
  0
LINE
  5
2C3
100
AcDbEntity
  8
1031
370
    30
  6
Continuous
 62
     7
100
AcDbLine
 10
335.1
 20
218.1
 30
0.0
 11
337.1
 21
218.1
 31
0.0
  0
LINE
  5
2C4
100
AcDbEntity
  8
1031
370
    30
  6
Continuous
 62
     7
100
AcDbLine
 10
333.6
 20
216.1
 30
0.0
 11
338.6
 21
216.1
 31
0.0
  0
ARC
  5
2C5
100
AcDbEntity
  8
1031
370
    30
  6
Continuous
 62
     7
100
AcDbCircle
 10
335.1
 20
216.6
 30
0.0
 40
1.5
100
AcDbArc
 50
90.0
 51
180.0
  0
ARC
  5
2C6
100
AcDbEntity
  8
1031
370
    30
  6
Continuous
 62
     7
100
AcDbCircle
 10
337.1
 20
216.6
 30
0.0
 40
1.5
100
AcDbArc
 50
0.0
 51
90.0
  0
LINE
  5
2C7
100
AcDbEntity
  8
1031
370
    30
  6
Continuous
 62
     7
100
AcDbLine
 10
337.91
 20
210.1
 30
0.0
 11
337.91
 21
207.1
 31
0.0
  0
LINE
  5
2C8
100
AcDbEntity
  8
1031
370
    30
  6
Continuous
 62
     7
100
AcDbLine
 10
339.16
 20
210.1
 30
0.0
 11
339.41
 21
221.6
 31
0.0
  0
LINE
  5
2C9
100
AcDbEntity
  8
1031
370
    30
  6
Continuous
 62
     7
100
AcDbLine
 10
332.931304
 20
215.1
 30
0.0
 11
339.268696
 21
215.1
 31
0.0
  0
LINE
  5
2CA
100
AcDbEntity
  8
1031
370
    30
  6
Continuous
 62
     7
100
AcDbLine
 10
339.390435
 20
220.7
 30
0.0
 11
332.809565
 21
220.7
 31
0.0
  0
LINE
  5
2CB
100
AcDbEntity
  8
1031
370
    30
  6
Continuous
 62
     7
100
AcDbLine
 10
339.407826
 20
221.5
 30
0.0
 11
332.792174
 21
221.5
 31
0.0
  0
LINE
  5
2CC
100
AcDbEntity
  8
1031
370
    30
  6
Continuous
 62
     7
100
AcDbLine
 10
341.91
 20
210.1
 30
0.0
 11
337.91
 21
210.1
 31
0.0
  0
LINE
  5
2CD
100
AcDbEntity
  8
1031
370
    30
  6
Continuous
 62
     7
100
AcDbLine
 10
341.91
 20
210.1
 30
0.0
 11
341.91
 21
207.1
 31
0.0
  0
LINE
  5
2CE
100
AcDbEntity
  8
1031
370
    30
  6
Continuous
 62
     7
100
AcDbLine
 10
340.41
 20
221.6
 30
0.0
 11
340.66
 21
210.1
 31
0.0
  0
LINE
  5
2CF
100
AcDbEntity
  8
1031
370
    30
  6
Continuous
 62
     7
100
AcDbLine
 10
339.41
 20
221.6
 30
0.0
 11
340.41
 21
221.6
 31
0.0
  0
LINE
  5
2D0
100
AcDbEntity
  8
1031
370
    30
  6
Continuous
 62
     7
100
AcDbLine
 10
325.98
 20
215.1
 30
0.0
 11
325.98
 21
216.6
 31
0.0
  0
LINE
  5
2D1
100
AcDbEntity
  8
1031
370
    30
  6
Continuous
 62
     7
100
AcDbLine
 10
325.98
 20
216.6
 30
0.0
 11
325.98
 21
215.1
 31
0.0
  0
LINE
  5
2D2
100
AcDbEntity
  8
1031
370
    30
  6
Continuous
 62
     7
100
AcDbLine
 10
330.98
 20
215.1
 30
0.0
 11
330.98
 21
216.6
 31
0.0
  0
LINE
  5
2D3
100
AcDbEntity
  8
1031
370
    30
  6
Continuous
 62
     7
100
AcDbLine
 10
327.48
 20
218.1
 30
0.0
 11
329.48
 21
218.1
 31
0.0
  0
LINE
  5
2D4
100
AcDbEntity
  8
1031
370
    30
  6
Continuous
 62
     7
100
AcDbLine
 10
325.98
 20
216.1
 30
0.0
 11
330.98
 21
216.1
 31
0.0
  0
ARC
  5
2D5
100
AcDbEntity
  8
1031
370
    30
  6
Continuous
 62
     7
100
AcDbCircle
 10
327.48
 20
216.6
 30
0.0
 40
1.5
100
AcDbArc
 50
90.0
 51
180.0
  0
ARC
  5
2D6
100
AcDbEntity
  8
1031
370
    30
  6
Continuous
 62
     7
100
AcDbCircle
 10
329.48
 20
216.6
 30
0.0
 40
1.5
100
AcDbArc
 50
0.0
 51
90.0
  0
LINE
  5
2D7
100
AcDbEntity
  8
1031
370
    30
  6
Continuous
 62
     7
100
AcDbLine
 10
330.29
 20
210.1
 30
0.0
 11
330.29
 21
207.1
 31
0.0
  0
LINE
  5
2D8
100
AcDbEntity
  8
1031
370
    30
  6
Continuous
 62
     7
100
AcDbLine
 10
331.54
 20
210.1
 30
0.0
 11
331.79
 21
221.6
 31
0.0
  0
LINE
  5
2D9
100
AcDbEntity
  8
1031
370
    30
  6
Continuous
 62
     7
100
AcDbLine
 10
325.311304
 20
215.1
 30
0.0
 11
331.648696
 21
215.1
 31
0.0
  0
LINE
  5
2DA
100
AcDbEntity
  8
1031
370
    30
  6
Continuous
 62
     7
100
AcDbLine
 10
334.29
 20
210.1
 30
0.0
 11
330.29
 21
210.1
 31
0.0
  0
LINE
  5
2DB
100
AcDbEntity
  8
1031
370
    30
  6
Continuous
 62
     7
100
AcDbLine
 10
334.29
 20
210.1
 30
0.0
 11
334.29
 21
207.1
 31
0.0
  0
LINE
  5
2DC
100
AcDbEntity
  8
1031
370
    30
  6
Continuous
 62
     7
100
AcDbLine
 10
332.79
 20
221.6
 30
0.0
 11
333.04
 21
210.1
 31
0.0
  0
LINE
  5
2DD
100
AcDbEntity
  8
1031
370
    30
  6
Continuous
 62
     7
100
AcDbLine
 10
331.79
 20
221.6
 30
0.0
 11
332.79
 21
221.6
 31
0.0
  0
LINE
  5
2DE
100
AcDbEntity
  8
1031
370
    30
  6
Continuous
 62
     7
100
AcDbLine
 10
326.67
 20
210.1
 30
0.0
 11
326.67
 21
207.1
 31
0.0
  0
LINE
  5
2DF
100
AcDbEntity
  8
1031
370
    30
  6
Continuous
 62
     7
100
AcDbLine
 10
331.770435
 20
220.7
 30
0.0
 11
325.189565
 21
220.7
 31
0.0
  0
LINE
  5
2E0
100
AcDbEntity
  8
1031
370
    30
  6
Continuous
 62
     7
100
AcDbLine
 10
331.787826
 20
221.5
 30
0.0
 11
325.172174
 21
221.5
 31
0.0
  0
LINE
  5
2E1
100
AcDbEntity
  8
1031
370
    30
  6
Continuous
 62
     7
100
AcDbLine
 10
378.651304
 20
215.1
 30
0.0
 11
384.988696
 21
215.1
 31
0.0
  0
LINE
  5
2E2
100
AcDbEntity
  8
1031
370
    30
  6
Continuous
 62
     7
100
AcDbLine
 10
377.51
 20
221.6
 30
0.0
 11
378.51
 21
221.6
 31
0.0
  0
LINE
  5
2E3
100
AcDbEntity
  8
1031
370
    30
  6
Continuous
 62
     7
100
AcDbLine
 10
379.32
 20
216.6
 30
0.0
 11
379.32
 21
215.1
 31
0.0
  0
LINE
  5
2E4
100
AcDbEntity
  8
1031
370
    30
  6
Continuous
 62
     7
100
AcDbLine
 10
384.32
 20
215.1
 30
0.0
 11
384.32
 21
216.6
 31
0.0
  0
LINE
  5
2E5
100
AcDbEntity
  8
1031
370
    30
  6
Continuous
 62
     7
100
AcDbLine
 10
380.82
 20
218.1
 30
0.0
 11
382.82
 21
218.1
 31
0.0
  0
LINE
  5
2E6
100
AcDbEntity
  8
1031
370
    30
  6
Continuous
 62
     7
100
AcDbLine
 10
379.32
 20
216.1
 30
0.0
 11
384.32
 21
216.1
 31
0.0
  0
ARC
  5
2E7
100
AcDbEntity
  8
1031
370
    30
  6
Continuous
 62
     7
100
AcDbCircle
 10
380.82
 20
216.6
 30
0.0
 40
1.5
100
AcDbArc
 50
90.0
 51
180.0
  0
ARC
  5
2E8
100
AcDbEntity
  8
1031
370
    30
  6
Continuous
 62
     7
100
AcDbCircle
 10
382.82
 20
216.6
 30
0.0
 40
1.5
100
AcDbArc
 50
0.0
 51
90.0
  0
POINT
  5
2E9
100
AcDbEntity
  8
1031
370
     9
  6
Continuous
 62
     7
100
AcDbPoint
 10
374.2
 20
207.1
 30
0.0
  0
LINE
  5
2EA
100
AcDbEntity
  8
1031
370
    30
  6
Continuous
 62
     7
100
AcDbLine
 10
380.01
 20
210.1
 30
0.0
 11
380.01
 21
207.1
 31
0.0
  0
LINE
  5
2EB
100
AcDbEntity
  8
1031
370
    30
  6
Continuous
 62
     7
100
AcDbLine
 10
377.26
 20
210.1
 30
0.0
 11
377.51
 21
221.6
 31
0.0
  0
LINE
  5
2EC
100
AcDbEntity
  8
1031
370
    30
  6
Continuous
 62
     7
100
AcDbLine
 10
378.51
 20
221.6
 30
0.0
 11
378.76
 21
210.1
 31
0.0
  0
LINE
  5
2ED
100
AcDbEntity
  8
1031
370
    30
  6
Continuous
 62
     7
100
AcDbLine
 10
385.110435
 20
220.7
 30
0.0
 11
378.529565
 21
220.7
 31
0.0
  0
LINE
  5
2EE
100
AcDbEntity
  8
1031
370
    30
  6
Continuous
 62
     7
100
AcDbLine
 10
385.127826
 20
221.5
 30
0.0
 11
378.512174
 21
221.5
 31
0.0
  0
LINE
  5
2EF
100
AcDbEntity
  8
1031
370
    30
  6
Continuous
 62
     7
100
AcDbLine
 10
380.01
 20
210.1
 30
0.0
 11
376.01
 21
210.1
 31
0.0
  0
LINE
  5
2F0
100
AcDbEntity
  8
1031
370
    30
  6
Continuous
 62
     7
100
AcDbLine
 10
376.01
 20
210.1
 30
0.0
 11
376.01
 21
207.1
 31
0.0
  0
LINE
  5
2F1
100
AcDbEntity
  8
1031
370
    30
  6
Continuous
 62
     7
100
AcDbLine
 10
386.271304
 20
215.1
 30
0.0
 11
392.608696
 21
215.1
 31
0.0
  0
LINE
  5
2F2
100
AcDbEntity
  8
1031
370
    30
  6
Continuous
 62
     7
100
AcDbLine
 10
385.13
 20
221.6
 30
0.0
 11
386.13
 21
221.6
 31
0.0
  0
LINE
  5
2F3
100
AcDbEntity
  8
1031
370
    30
  6
Continuous
 62
     7
100
AcDbLine
 10
386.94
 20
216.6
 30
0.0
 11
386.94
 21
215.1
 31
0.0
  0
LINE
  5
2F4
100
AcDbEntity
  8
1031
370
    30
  6
Continuous
 62
     7
100
AcDbLine
 10
391.94
 20
215.1
 30
0.0
 11
391.94
 21
216.6
 31
0.0
  0
LINE
  5
2F5
100
AcDbEntity
  8
1031
370
    30
  6
Continuous
 62
     7
100
AcDbLine
 10
388.44
 20
218.1
 30
0.0
 11
390.44
 21
218.1
 31
0.0
  0
LINE
  5
2F6
100
AcDbEntity
  8
1031
370
    30
  6
Continuous
 62
     7
100
AcDbLine
 10
386.94
 20
216.1
 30
0.0
 11
391.94
 21
216.1
 31
0.0
  0
ARC
  5
2F7
100
AcDbEntity
  8
1031
370
    30
  6
Continuous
 62
     7
100
AcDbCircle
 10
388.44
 20
216.6
 30
0.0
 40
1.5
100
AcDbArc
 50
90.0
 51
180.0
  0
ARC
  5
2F8
100
AcDbEntity
  8
1031
370
    30
  6
Continuous
 62
     7
100
AcDbCircle
 10
390.44
 20
216.6
 30
0.0
 40
1.5
100
AcDbArc
 50
0.0
 51
90.0
  0
LINE
  5
2F9
100
AcDbEntity
  8
1031
370
    30
  6
Continuous
 62
     7
100
AcDbLine
 10
387.63
 20
210.1
 30
0.0
 11
387.63
 21
207.1
 31
0.0
  0
LINE
  5
2FA
100
AcDbEntity
  8
1031
370
    30
  6
Continuous
 62
     7
100
AcDbLine
 10
384.88
 20
210.1
 30
0.0
 11
385.13
 21
221.6
 31
0.0
  0
LINE
  5
2FB
100
AcDbEntity
  8
1031
370
    30
  6
Continuous
 62
     7
100
AcDbLine
 10
386.13
 20
221.6
 30
0.0
 11
386.38
 21
210.1
 31
0.0
  0
LINE
  5
2FC
100
AcDbEntity
  8
1031
370
    30
  6
Continuous
 62
     7
100
AcDbLine
 10
392.730435
 20
220.7
 30
0.0
 11
386.149565
 21
220.7
 31
0.0
  0
LINE
  5
2FD
100
AcDbEntity
  8
1031
370
    30
  6
Continuous
 62
     7
100
AcDbLine
 10
392.747826
 20
221.5
 30
0.0
 11
386.132174
 21
221.5
 31
0.0
  0
LINE
  5
2FE
100
AcDbEntity
  8
1031
370
    30
  6
Continuous
 62
     7
100
AcDbLine
 10
387.63
 20
210.1
 30
0.0
 11
383.63
 21
210.1
 31
0.0
  0
LINE
  5
2FF
100
AcDbEntity
  8
1031
370
    30
  6
Continuous
 62
     7
100
AcDbLine
 10
383.63
 20
210.1
 30
0.0
 11
383.63
 21
207.1
 31
0.0
  0
LINE
  5
300
100
AcDbEntity
  8
1031
370
    30
  6
Continuous
 62
     7
100
AcDbLine
 10
393.891304
 20
215.1
 30
0.0
 11
400.228696
 21
215.1
 31
0.0
  0
LINE
  5
301
100
AcDbEntity
  8
1031
370
    30
  6
Continuous
 62
     7
100
AcDbLine
 10
392.75
 20
221.6
 30
0.0
 11
393.75
 21
221.6
 31
0.0
  0
LINE
  5
302
100
AcDbEntity
  8
1031
370
    30
  6
Continuous
 62
     7
100
AcDbLine
 10
394.56
 20
216.6
 30
0.0
 11
394.56
 21
215.1
 31
0.0
  0
LINE
  5
303
100
AcDbEntity
  8
1031
370
    30
  6
Continuous
 62
     7
100
AcDbLine
 10
399.56
 20
215.1
 30
0.0
 11
399.56
 21
216.6
 31
0.0
  0
LINE
  5
304
100
AcDbEntity
  8
1031
370
    30
  6
Continuous
 62
     7
100
AcDbLine
 10
396.06
 20
218.1
 30
0.0
 11
398.06
 21
218.1
 31
0.0
  0
LINE
  5
305
100
AcDbEntity
  8
1031
370
    30
  6
Continuous
 62
     7
100
AcDbLine
 10
394.56
 20
216.1
 30
0.0
 11
399.56
 21
216.1
 31
0.0
  0
ARC
  5
306
100
AcDbEntity
  8
1031
370
    30
  6
Continuous
 62
     7
100
AcDbCircle
 10
396.06
 20
216.6
 30
0.0
 40
1.5
100
AcDbArc
 50
90.0
 51
180.0
  0
ARC
  5
307
100
AcDbEntity
  8
1031
370
    30
  6
Continuous
 62
     7
100
AcDbCircle
 10
398.06
 20
216.6
 30
0.0
 40
1.5
100
AcDbArc
 50
0.0
 51
90.0
  0
LINE
  5
308
100
AcDbEntity
  8
1031
370
    30
  6
Continuous
 62
     7
100
AcDbLine
 10
395.25
 20
210.1
 30
0.0
 11
395.25
 21
207.1
 31
0.0
  0
LINE
  5
309
100
AcDbEntity
  8
1031
370
    30
  6
Continuous
 62
     7
100
AcDbLine
 10
392.5
 20
210.1
 30
0.0
 11
392.75
 21
221.6
 31
0.0
  0
LINE
  5
30A
100
AcDbEntity
  8
1031
370
    30
  6
Continuous
 62
     7
100
AcDbLine
 10
393.75
 20
221.6
 30
0.0
 11
394.0
 21
210.1
 31
0.0
  0
LINE
  5
30B
100
AcDbEntity
  8
1031
370
    30
  6
Continuous
 62
     7
100
AcDbLine
 10
400.350435
 20
220.7
 30
0.0
 11
393.769565
 21
220.7
 31
0.0
  0
LINE
  5
30C
100
AcDbEntity
  8
1031
370
    30
  6
Continuous
 62
     7
100
AcDbLine
 10
400.367826
 20
221.5
 30
0.0
 11
393.752174
 21
221.5
 31
0.0
  0
LINE
  5
30D
100
AcDbEntity
  8
1031
370
    30
  6
Continuous
 62
     7
100
AcDbLine
 10
395.25
 20
210.1
 30
0.0
 11
391.25
 21
210.1
 31
0.0
  0
LINE
  5
30E
100
AcDbEntity
  8
1031
370
    30
  6
Continuous
 62
     7
100
AcDbLine
 10
391.25
 20
210.1
 30
0.0
 11
391.25
 21
207.1
 31
0.0
  0
LINE
  5
30F
100
AcDbEntity
  8
1031
370
    30
  6
Continuous
 62
     7
100
AcDbLine
 10
401.511304
 20
215.1
 30
0.0
 11
407.848696
 21
215.1
 31
0.0
  0
LINE
  5
310
100
AcDbEntity
  8
1031
370
    30
  6
Continuous
 62
     7
100
AcDbLine
 10
400.37
 20
221.6
 30
0.0
 11
401.37
 21
221.6
 31
0.0
  0
LINE
  5
311
100
AcDbEntity
  8
1031
370
    30
  6
Continuous
 62
     7
100
AcDbLine
 10
402.18
 20
216.6
 30
0.0
 11
402.18
 21
215.1
 31
0.0
  0
LINE
  5
312
100
AcDbEntity
  8
1031
370
    30
  6
Continuous
 62
     7
100
AcDbLine
 10
407.18
 20
215.1
 30
0.0
 11
407.18
 21
216.6
 31
0.0
  0
LINE
  5
313
100
AcDbEntity
  8
1031
370
    30
  6
Continuous
 62
     7
100
AcDbLine
 10
403.68
 20
218.1
 30
0.0
 11
405.68
 21
218.1
 31
0.0
  0
LINE
  5
314
100
AcDbEntity
  8
1031
370
    30
  6
Continuous
 62
     7
100
AcDbLine
 10
402.18
 20
216.1
 30
0.0
 11
407.18
 21
216.1
 31
0.0
  0
ARC
  5
315
100
AcDbEntity
  8
1031
370
    30
  6
Continuous
 62
     7
100
AcDbCircle
 10
403.68
 20
216.6
 30
0.0
 40
1.5
100
AcDbArc
 50
90.0
 51
180.0
  0
ARC
  5
316
100
AcDbEntity
  8
1031
370
    30
  6
Continuous
 62
     7
100
AcDbCircle
 10
405.68
 20
216.6
 30
0.0
 40
1.5
100
AcDbArc
 50
0.0
 51
90.0
  0
LINE
  5
317
100
AcDbEntity
  8
1031
370
    30
  6
Continuous
 62
     7
100
AcDbLine
 10
402.87
 20
210.1
 30
0.0
 11
402.87
 21
207.1
 31
0.0
  0
LINE
  5
318
100
AcDbEntity
  8
1031
370
    30
  6
Continuous
 62
     7
100
AcDbLine
 10
400.12
 20
210.1
 30
0.0
 11
400.37
 21
221.6
 31
0.0
  0
LINE
  5
319
100
AcDbEntity
  8
1031
370
    30
  6
Continuous
 62
     7
100
AcDbLine
 10
401.37
 20
221.6
 30
0.0
 11
401.62
 21
210.1
 31
0.0
  0
LINE
  5
31A
100
AcDbEntity
  8
1031
370
    30
  6
Continuous
 62
     7
100
AcDbLine
 10
407.970435
 20
220.7
 30
0.0
 11
401.389565
 21
220.7
 31
0.0
  0
LINE
  5
31B
100
AcDbEntity
  8
1031
370
    30
  6
Continuous
 62
     7
100
AcDbLine
 10
407.987826
 20
221.5
 30
0.0
 11
401.372174
 21
221.5
 31
0.0
  0
LINE
  5
31C
100
AcDbEntity
  8
1031
370
    30
  6
Continuous
 62
     7
100
AcDbLine
 10
402.87
 20
210.1
 30
0.0
 11
398.87
 21
210.1
 31
0.0
  0
LINE
  5
31D
100
AcDbEntity
  8
1031
370
    30
  6
Continuous
 62
     7
100
AcDbLine
 10
398.87
 20
210.1
 30
0.0
 11
398.87
 21
207.1
 31
0.0
  0
LINE
  5
31E
100
AcDbEntity
  8
1031
370
    30
  6
Continuous
 62
     7
100
AcDbLine
 10
409.131304
 20
215.1
 30
0.0
 11
415.468696
 21
215.1
 31
0.0
  0
LINE
  5
31F
100
AcDbEntity
  8
1031
370
    30
  6
Continuous
 62
     7
100
AcDbLine
 10
407.99
 20
221.6
 30
0.0
 11
408.99
 21
221.6
 31
0.0
  0
LINE
  5
320
100
AcDbEntity
  8
1031
370
    30
  6
Continuous
 62
     7
100
AcDbLine
 10
409.8
 20
216.6
 30
0.0
 11
409.8
 21
215.1
 31
0.0
  0
LINE
  5
321
100
AcDbEntity
  8
1031
370
    30
  6
Continuous
 62
     7
100
AcDbLine
 10
414.8
 20
215.1
 30
0.0
 11
414.8
 21
216.6
 31
0.0
  0
LINE
  5
322
100
AcDbEntity
  8
1031
370
    30
  6
Continuous
 62
     7
100
AcDbLine
 10
411.3
 20
218.1
 30
0.0
 11
413.3
 21
218.1
 31
0.0
  0
LINE
  5
323
100
AcDbEntity
  8
1031
370
    30
  6
Continuous
 62
     7
100
AcDbLine
 10
409.8
 20
216.1
 30
0.0
 11
414.8
 21
216.1
 31
0.0
  0
ARC
  5
324
100
AcDbEntity
  8
1031
370
    30
  6
Continuous
 62
     7
100
AcDbCircle
 10
411.3
 20
216.6
 30
0.0
 40
1.5
100
AcDbArc
 50
90.0
 51
180.0
  0
ARC
  5
325
100
AcDbEntity
  8
1031
370
    30
  6
Continuous
 62
     7
100
AcDbCircle
 10
413.3
 20
216.6
 30
0.0
 40
1.5
100
AcDbArc
 50
0.0
 51
90.0
  0
LINE
  5
326
100
AcDbEntity
  8
1031
370
    30
  6
Continuous
 62
     7
100
AcDbLine
 10
410.49
 20
210.1
 30
0.0
 11
410.49
 21
207.1
 31
0.0
  0
LINE
  5
327
100
AcDbEntity
  8
1031
370
    30
  6
Continuous
 62
     7
100
AcDbLine
 10
407.74
 20
210.1
 30
0.0
 11
407.99
 21
221.6
 31
0.0
  0
LINE
  5
328
100
AcDbEntity
  8
1031
370
    30
  6
Continuous
 62
     7
100
AcDbLine
 10
408.99
 20
221.6
 30
0.0
 11
409.24
 21
210.1
 31
0.0
  0
LINE
  5
329
100
AcDbEntity
  8
1031
370
    30
  6
Continuous
 62
     7
100
AcDbLine
 10
415.590435
 20
220.7
 30
0.0
 11
409.009565
 21
220.7
 31
0.0
  0
LINE
  5
32A
100
AcDbEntity
  8
1031
370
    30
  6
Continuous
 62
     7
100
AcDbLine
 10
415.607826
 20
221.5
 30
0.0
 11
408.992174
 21
221.5
 31
0.0
  0
LINE
  5
32B
100
AcDbEntity
  8
1031
370
    30
  6
Continuous
 62
     7
100
AcDbLine
 10
410.49
 20
210.1
 30
0.0
 11
406.49
 21
210.1
 31
0.0
  0
LINE
  5
32C
100
AcDbEntity
  8
1031
370
    30
  6
Continuous
 62
     7
100
AcDbLine
 10
406.49
 20
210.1
 30
0.0
 11
406.49
 21
207.1
 31
0.0
  0
LINE
  5
32D
100
AcDbEntity
  8
1031
370
    30
  6
Continuous
 62
     7
100
AcDbLine
 10
415.61
 20
221.6
 30
0.0
 11
416.61
 21
221.6
 31
0.0
  0
LINE
  5
32E
100
AcDbEntity
  8
1031
370
    30
  6
Continuous
 62
     7
100
AcDbLine
 10
418.11
 20
210.1
 30
0.0
 11
418.11
 21
207.1
 31
0.0
  0
LINE
  5
32F
100
AcDbEntity
  8
1031
370
    30
  6
Continuous
 62
     7
100
AcDbLine
 10
415.36
 20
210.1
 30
0.0
 11
415.61
 21
221.6
 31
0.0
  0
LINE
  5
330
100
AcDbEntity
  8
1031
370
    30
  6
Continuous
 62
     7
100
AcDbLine
 10
416.61
 20
221.6
 30
0.0
 11
416.86
 21
210.1
 31
0.0
  0
LINE
  5
331
100
AcDbEntity
  8
1031
370
    30
  6
Continuous
 62
     7
100
AcDbLine
 10
418.11
 20
210.1
 30
0.0
 11
414.11
 21
210.1
 31
0.0
  0
LINE
  5
332
100
AcDbEntity
  8
1031
370
    30
  6
Continuous
 62
     7
100
AcDbLine
 10
414.11
 20
210.1
 30
0.0
 11
414.11
 21
207.1
 31
0.0
  0
LINE
  5
333
100
AcDbEntity
  8
1031
370
    30
  6
Continuous
 62
     7
100
AcDbLine
 10
416.751304
 20
215.1
 30
0.0
 11
423.088696
 21
215.1
 31
0.0
  0
LINE
  5
334
100
AcDbEntity
  8
1031
370
    30
  6
Continuous
 62
     7
100
AcDbLine
 10
417.42
 20
216.6
 30
0.0
 11
417.42
 21
215.1
 31
0.0
  0
LINE
  5
335
100
AcDbEntity
  8
1031
370
    30
  6
Continuous
 62
     7
100
AcDbLine
 10
422.42
 20
215.1
 30
0.0
 11
422.42
 21
216.6
 31
0.0
  0
LINE
  5
336
100
AcDbEntity
  8
1031
370
    30
  6
Continuous
 62
     7
100
AcDbLine
 10
418.92
 20
218.1
 30
0.0
 11
420.92
 21
218.1
 31
0.0
  0
LINE
  5
337
100
AcDbEntity
  8
1031
370
    30
  6
Continuous
 62
     7
100
AcDbLine
 10
417.42
 20
216.1
 30
0.0
 11
422.42
 21
216.1
 31
0.0
  0
ARC
  5
338
100
AcDbEntity
  8
1031
370
    30
  6
Continuous
 62
     7
100
AcDbCircle
 10
418.92
 20
216.6
 30
0.0
 40
1.5
100
AcDbArc
 50
90.0
 51
180.0
  0
ARC
  5
339
100
AcDbEntity
  8
1031
370
    30
  6
Continuous
 62
     7
100
AcDbCircle
 10
420.92
 20
216.6
 30
0.0
 40
1.5
100
AcDbArc
 50
0.0
 51
90.0
  0
LINE
  5
33A
100
AcDbEntity
  8
1031
370
    30
  6
Continuous
 62
     7
100
AcDbLine
 10
423.210435
 20
220.7
 30
0.0
 11
416.629565
 21
220.7
 31
0.0
  0
LINE
  5
33B
100
AcDbEntity
  8
1031
370
    30
  6
Continuous
 62
     7
100
AcDbLine
 10
423.227826
 20
221.5
 30
0.0
 11
416.612174
 21
221.5
 31
0.0
  0
LINE
  5
33C
100
AcDbEntity
  8
1031
370
    30
  6
Continuous
 62
     7
100
AcDbLine
 10
278.85
 20
225.0
 30
0.0
 11
307.15
 21
225.0
 31
0.0
  0
LINE
  5
33D
100
AcDbEntity
  8
1031
370
    30
  6
Continuous
 62
     7
100
AcDbLine
 10
426.0
 20
206.0
 30
0.0
 11
426.3
 21
206.0
 31
0.0
  0
LINE
  5
33E
100
AcDbEntity
  8
1031
370
    30
  6
Continuous
 62
     7
100
AcDbLine
 10
426.0
 20
200.0
 30
0.0
 11
426.3
 21
200.0
 31
0.0
  0
ARC
  5
33F
100
AcDbEntity
  8
1031
370
    30
  6
Continuous
 62
     7
100
AcDbCircle
 10
423.15
 20
203.0
 30
0.0
 40
4.35
100
AcDbArc
 50
-43.602819
 51
43.602819
  0
LINE
  5
340
100
AcDbEntity
  8
1031
370
    30
  6
Continuous
 62
     7
100
AcDbLine
 10
272.0
 20
206.0
 30
0.0
 11
271.7
 21
206.0
 31
0.0
  0
LINE
  5
341
100
AcDbEntity
  8
1031
370
    30
  6
Continuous
 62
     7
100
AcDbLine
 10
272.0
 20
200.0
 30
0.0
 11
271.7
 21
200.0
 31
0.0
  0
ARC
  5
342
100
AcDbEntity
  8
1031
370
    30
  6
Continuous
 62
     7
100
AcDbCircle
 10
274.85
 20
203.0
 30
0.0
 40
4.35
100
AcDbArc
 50
136.397181
 51
-136.397181
  0
LINE
  5
343
100
AcDbEntity
  8
1031
370
    30
  6
Continuous
 62
     7
100
AcDbLine
 10
300.0
 20
207.1
 30
0.0
 11
322.0
 21
207.1
 31
0.0
  0
LINE
  5
344
100
AcDbEntity
  8
1031
370
    30
  6
Continuous
 62
     7
100
AcDbLine
 10
300.0
 20
213.1
 30
0.0
 11
322.0
 21
213.1
 31
0.0
  0
LINE
  5
345
100
AcDbEntity
  8
1031
370
    30
  6
Continuous
 62
     7
100
AcDbLine
 10
319.255
 20
214.2
 30
0.0
 11
320.525
 21
214.2
 31
0.0
  0
LINE
  5
346
100
AcDbEntity
  8
1031
370
    30
  6
Continuous
 62
     7
100
AcDbLine
 10
319.255
 20
214.2
 30
0.0
 11
319.255
 21
213.1
 31
0.0
  0
LINE
  5
347
100
AcDbEntity
  8
1031
370
    30
  6
Continuous
 62
     7
100
AcDbLine
 10
320.525
 20
214.2
 30
0.0
 11
320.525
 21
213.1
 31
0.0
  0
LINE
  5
348
100
AcDbEntity
  8
1031
370
    30
  6
Continuous
 62
     7
100
AcDbLine
 10
316.715
 20
214.2
 30
0.0
 11
317.985
 21
214.2
 31
0.0
  0
LINE
  5
349
100
AcDbEntity
  8
1031
370
    30
  6
Continuous
 62
     7
100
AcDbLine
 10
316.715
 20
214.2
 30
0.0
 11
316.715
 21
213.1
 31
0.0
  0
LINE
  5
34A
100
AcDbEntity
  8
1031
370
    30
  6
Continuous
 62
     7
100
AcDbLine
 10
317.985
 20
214.2
 30
0.0
 11
317.985
 21
213.1
 31
0.0
  0
LINE
  5
34B
100
AcDbEntity
  8
1031
370
    30
  6
Continuous
 62
     7
100
AcDbLine
 10
314.175
 20
214.2
 30
0.0
 11
315.445
 21
214.2
 31
0.0
  0
LINE
  5
34C
100
AcDbEntity
  8
1031
370
    30
  6
Continuous
 62
     7
100
AcDbLine
 10
314.175
 20
214.2
 30
0.0
 11
314.175
 21
213.1
 31
0.0
  0
LINE
  5
34D
100
AcDbEntity
  8
1031
370
    30
  6
Continuous
 62
     7
100
AcDbLine
 10
315.445
 20
214.2
 30
0.0
 11
315.445
 21
213.1
 31
0.0
  0
LINE
  5
34E
100
AcDbEntity
  8
1031
370
    30
  6
Continuous
 62
     7
100
AcDbLine
 10
311.635
 20
214.2
 30
0.0
 11
312.905
 21
214.2
 31
0.0
  0
LINE
  5
34F
100
AcDbEntity
  8
1031
370
    30
  6
Continuous
 62
     7
100
AcDbLine
 10
311.635
 20
214.2
 30
0.0
 11
311.635
 21
213.1
 31
0.0
  0
LINE
  5
350
100
AcDbEntity
  8
1031
370
    30
  6
Continuous
 62
     7
100
AcDbLine
 10
312.905
 20
214.2
 30
0.0
 11
312.905
 21
213.1
 31
0.0
  0
LINE
  5
351
100
AcDbEntity
  8
1031
370
    30
  6
Continuous
 62
     7
100
AcDbLine
 10
309.095
 20
214.2
 30
0.0
 11
310.365
 21
214.2
 31
0.0
  0
LINE
  5
352
100
AcDbEntity
  8
1031
370
    30
  6
Continuous
 62
     7
100
AcDbLine
 10
309.095
 20
214.2
 30
0.0
 11
309.095
 21
213.1
 31
0.0
  0
LINE
  5
353
100
AcDbEntity
  8
1031
370
    30
  6
Continuous
 62
     7
100
AcDbLine
 10
310.365
 20
214.2
 30
0.0
 11
310.365
 21
213.1
 31
0.0
  0
LINE
  5
354
100
AcDbEntity
  8
1031
370
    30
  6
Continuous
 62
     7
100
AcDbLine
 10
306.555
 20
214.2
 30
0.0
 11
307.825
 21
214.2
 31
0.0
  0
LINE
  5
355
100
AcDbEntity
  8
1031
370
    30
  6
Continuous
 62
     7
100
AcDbLine
 10
306.555
 20
214.2
 30
0.0
 11
306.555
 21
213.1
 31
0.0
  0
LINE
  5
356
100
AcDbEntity
  8
1031
370
    30
  6
Continuous
 62
     7
100
AcDbLine
 10
307.825
 20
214.2
 30
0.0
 11
307.825
 21
213.1
 31
0.0
  0
LINE
  5
357
100
AcDbEntity
  8
1031
370
    30
  6
Continuous
 62
     7
100
AcDbLine
 10
304.015
 20
214.2
 30
0.0
 11
305.285
 21
214.2
 31
0.0
  0
LINE
  5
358
100
AcDbEntity
  8
1031
370
    30
  6
Continuous
 62
     7
100
AcDbLine
 10
304.015
 20
214.2
 30
0.0
 11
304.015
 21
213.1
 31
0.0
  0
LINE
  5
359
100
AcDbEntity
  8
1031
370
    30
  6
Continuous
 62
     7
100
AcDbLine
 10
305.285
 20
214.2
 30
0.0
 11
305.285
 21
213.1
 31
0.0
  0
LINE
  5
35A
100
AcDbEntity
  8
1031
370
    30
  6
Continuous
 62
     7
100
AcDbLine
 10
301.475
 20
214.2
 30
0.0
 11
302.745
 21
214.2
 31
0.0
  0
LINE
  5
35B
100
AcDbEntity
  8
1031
370
    30
  6
Continuous
 62
     7
100
AcDbLine
 10
301.475
 20
214.2
 30
0.0
 11
301.475
 21
213.1
 31
0.0
  0
LINE
  5
35C
100
AcDbEntity
  8
1031
370
    30
  6
Continuous
 62
     7
100
AcDbLine
 10
302.745
 20
214.2
 30
0.0
 11
302.745
 21
213.1
 31
0.0
  0
LINE
  5
35D
100
AcDbEntity
  8
1031
370
    30
  6
Continuous
 62
     7
100
AcDbLine
 10
300.0
 20
213.1
 30
0.0
 11
300.0
 21
207.1
 31
0.0
  0
LINE
  5
35E
100
AcDbEntity
  8
1031
370
    30
  6
Continuous
 62
     7
100
AcDbLine
 10
322.0
 20
213.1
 30
0.0
 11
322.0
 21
207.1
 31
0.0
  0
LINE
  5
35F
100
AcDbEntity
  8
1031
370
    30
  6
Continuous
 62
     7
100
AcDbLine
 10
425.2
 20
214.2
 30
0.0
 11
426.0
 21
214.2
 31
0.0
  0
LINE
  5
360
100
AcDbEntity
  8
1031
370
    30
  6
Continuous
 62
     7
100
AcDbLine
 10
272.8
 20
214.2
 30
0.0
 11
272.0
 21
214.2
 31
0.0
  0
LINE
  5
361
100
AcDbEntity
  8
1031
370
    30
  6
Continuous
 62
     7
100
AcDbLine
 10
272.8
 20
212.2
 30
0.0
 11
272.0
 21
212.2
 31
0.0
  0
LINE
  5
362
100
AcDbEntity
  8
1031
370
    30
  6
Continuous
 62
     7
100
AcDbLine
 10
425.2
 20
212.2
 30
0.0
 11
426.0
 21
212.2
 31
0.0
  0
LINE
  5
363
100
AcDbEntity
  8
1031
370
    30
  6
Continuous
 62
     7
100
AcDbLine
 10
273.0
 20
283.0
 30
0.0
 11
382.0
 21
283.0
 31
0.0
  0
LINE
  5
364
100
AcDbEntity
  8
1031
370
    30
  6
Continuous
 62
     7
100
AcDbLine
 10
381.0
 20
283.0
 30
0.0
 11
288.0
 21
283.0
 31
0.0
  0
TEXT
  5
365
100
AcDbEntity
  8
1031
370
     9
  6
Continuous
 62
     7
100
AcDbText
 10
288.81
 20
346.5
 30
0.0
 40
3.0
  1
電 源
 41
0.735294
 11
288.81
 21
346.5
 31
0.0
100
AcDbText
 73
     1
  0
TEXT
  5
366
100
AcDbEntity
  8
1031
370
     9
  6
Continuous
 62
     7
100
AcDbText
 10
326.88
 20
300.25
 30
0.0
 40
3.0
  1
V+
 41
0.5
 11
326.88
 21
300.25
 31
0.0
100
AcDbText
 73
     1
  0
TEXT
  5
367
100
AcDbEntity
  8
1031
370
     9
  6
Continuous
 62
     7
100
AcDbText
 10
342.12
 20
300.25
 30
0.0
 40
3.0
  1
S-
 41
0.5
 11
342.12
 21
300.25
 31
0.0
100
AcDbText
 73
     1
  0
TEXT
  5
368
100
AcDbEntity
  8
1031
370
     9
  6
Continuous
 62
     7
100
AcDbText
 10
334.5
 20
300.25
 30
0.0
 40
3.0
  1
S+
 41
0.5
 11
334.5
 21
300.25
 31
0.0
100
AcDbText
 73
     1
  0
TEXT
  5
369
100
AcDbEntity
  8
1031
370
     9
  6
Continuous
 62
     7
100
AcDbText
 10
275.8
 20
300.25
 30
0.0
 40
3.0
  1
表示切替
 41
0.7
 11
275.8
 21
300.25
 31
0.0
100
AcDbText
 73
     1
  0
TEXT
  5
36A
100
AcDbEntity
  8
1031
370
     9
  6
Continuous
 62
     7
100
AcDbText
 10
394.77
 20
300.25
 30
0.0
 40
3.0
  1
接点出力
 11
394.77
 21
300.25
 31
0.0
100
AcDbText
 73
     1
  0
TEXT
  5
36B
100
AcDbEntity
  8
1031
370
     9
  6
Continuous
 62
     7
100
AcDbText
 10
285.45
 20
329.8
 30
0.0
 40
3.0
  1
MEMORY CARD
 41
0.481818
 11
285.45
 21
329.8
 31
0.0
100
AcDbText
 73
     1
  0
TEXT
  5
36C
100
AcDbEntity
  8
1031
370
     9
  6
Continuous
 62
     7
100
AcDbText
 10
413.8
 20
303.25
 30
0.0
 40
3.0
  1
＋
 50
180.0
 11
413.8
 21
303.25
 31
0.0
100
AcDbText
 73
     1
  0
TEXT
  5
36D
100
AcDbEntity
  8
1031
370
     9
  6
Continuous
 62
     7
100
AcDbText
 10
418.42
 20
300.25
 30
0.0
 40
3.0
  1
－
 11
418.42
 21
300.25
 31
0.0
100
AcDbText
 73
     1
  0
TEXT
  5
36E
100
AcDbEntity
  8
1031
370
     9
  6
Continuous
 62
     7
100
AcDbText
 10
410.86
 20
306.75
 30
0.0
 40
3.0
  1
電源12V
 41
0.7
 11
410.86
 21
306.75
 31
0.0
100
AcDbText
 73
     1
  0
TEXT
  5
36F
100
AcDbEntity
  8
1031
370
     9
  6
Continuous
 62
     7
100
AcDbText
 10
357.46
 20
300.25
 30
0.0
 40
3.0
  1
＋
 11
357.46
 21
300.25
 31
0.0
100
AcDbText
 73
     1
  0
TEXT
  5
370
100
AcDbEntity
  8
1031
370
     9
  6
Continuous
 62
     7
100
AcDbText
 10
371.95
 20
300.25
 30
0.0
 40
3.0
  1
GND
 41
0.5
 11
371.95
 21
300.25
 31
0.0
100
AcDbText
 73
     1
  0
TEXT
  5
371
100
AcDbEntity
  8
1031
370
     9
  6
Continuous
 62
     7
100
AcDbText
 10
365.08
 20
300.25
 30
0.0
 40
3.0
  1
－
 11
365.08
 21
300.25
 31
0.0
100
AcDbText
 73
     1
  0
TEXT
  5
372
100
AcDbEntity
  8
1031
370
     9
  6
Continuous
 62
     7
100
AcDbText
 10
362.08
 20
306.75
 30
0.0
 40
3.0
  1
RS-485
 41
0.5
 11
362.08
 21
306.75
 31
0.0
100
AcDbText
 73
     1
  0
TEXT
  5
373
100
AcDbEntity
  8
1031
370
     9
  6
Continuous
 62
     7
100
AcDbText
 10
348.99
 20
300.25
 30
0.0
 40
3.0
  1
GND
 41
0.5
 11
348.99
 21
300.25
 31
0.0
100
AcDbText
 73
     1
  0
TEXT
  5
374
100
AcDbEntity
  8
1031
370
     9
  6
Continuous
 62
     7
100
AcDbText
 10
280.0
 20
388.0
 30
0.0
 40
4.0
  1
GTR-01A  CARD LOGGER
 41
0.47
 11
280.0
 21
388.0
 31
0.0
100
AcDbText
 73
     1
  0
TEXT
  5
375
100
AcDbEntity
  8
1031
370
     9
  6
Continuous
 62
     7
100
AcDbText
 10
307.25
 20
300.25
 30
0.0
 40
3.0
  1
設 定
 41
0.735294
 11
307.25
 21
300.25
 31
0.0
100
AcDbText
 73
     1
  0
TEXT
  5
376
100
AcDbEntity
  8
1031
370
     9
  6
Continuous
 62
     7
100
AcDbText
 10
333.81
 20
306.75
 30
0.0
 40
3.0
  1
センサー
 11
333.81
 21
306.75
 31
0.0
100
AcDbText
 73
     1
  0
TEXT
  5
377
100
AcDbEntity
  8
1031
370
     9
  6
Continuous
 62
     7
100
AcDbText
 10
389.4
 20
306.75
 30
0.0
 40
3.0
  1
警 報
 41
0.735294
 11
389.4
 21
306.75
 31
0.0
100
AcDbText
 73
     1
  0
TEXT
  5
378
100
AcDbEntity
  8
1031
370
     9
  6
Continuous
 62
     7
100
AcDbText
 10
288.0
 20
307.75
 30
0.0
 40
3.0
  1
データ回収
 41
0.6
 11
288.0
 21
307.75
 31
0.0
100
AcDbText
 73
     1
  0
TEXT
  5
379
100
AcDbEntity
  8
1031
370
     9
  6
Continuous
 62
     7
100
AcDbText
 10
275.8
 20
307.75
 30
0.0
 40
3.0
  1
設定書込
 41
0.7
 11
275.8
 21
307.75
 31
0.0
100
AcDbText
 73
     1
  0
TEXT
  5
37A
100
AcDbEntity
  8
1031
370
     9
  6
Continuous
 62
     7
100
AcDbText
 10
279.05
 20
313.5
 30
0.0
 40
3.0
  1
カード挿入時
 41
0.8
 11
279.05
 21
313.5
 31
0.0
100
AcDbText
 73
     1
  0
TEXT
  5
37B
100
AcDbEntity
  8
1031
370
     9
  6
Continuous
 62
     7
100
AcDbText
 10
296.525
 20
379.75
 30
0.0
 40
2.5
  1
日 付
 41
0.735294
 11
296.525
 21
379.75
 31
0.0
100
AcDbText
 73
     1
  0
TEXT
  5
37C
100
AcDbEntity
  8
1031
370
     9
  6
Continuous
 62
     7
100
AcDbText
 10
318.725
 20
379.75
 30
0.0
 40
2.5
  1
時 刻
 41
0.735294
 11
318.725
 21
379.75
 31
0.0
100
AcDbText
 73
     1
  0
TEXT
  5
37D
100
AcDbEntity
  8
1031
370
     9
  6
Continuous
 62
     7
100
AcDbText
 10
338.1125
 20
379.75
 30
0.0
 40
2.5
  1
電圧(V)
 41
0.7
 11
338.1125
 21
379.75
 31
0.0
100
AcDbText
 73
     1
  0
TEXT
  5
37E
100
AcDbEntity
  8
1031
370
     9
  6
Continuous
 62
     7
100
AcDbText
 10
296.525
 20
379.75
 30
0.0
 40
2.5
  1
日 付
 41
0.735294
 11
296.525
 21
379.75
 31
0.0
100
AcDbText
 73
     1
  0
TEXT
  5
37F
100
AcDbEntity
  8
1031
370
     9
  6
Continuous
 62
     7
100
AcDbText
 10
324.05
 20
359.75
 30
0.0
 40
2.5
  1
初期値からの変化量
 11
324.05
 21
359.75
 31
0.0
100
AcDbText
 73
     1
  0
TEXT
  5
380
100
AcDbEntity
  8
1031
370
     9
  6
Continuous
 62
     7
100
AcDbText
 10
296.25
 20
355.75
 30
0.0
 40
2.5
  1
現在電圧値(mV)
 41
0.777778
 11
296.25
 21
355.75
 31
0.0
100
AcDbText
 73
     1
  0
TEXT
  5
381
100
AcDbEntity
  8
1031
370
     9
  6
Continuous
 62
     7
100
AcDbText
 10
329.05
 20
355.75
 30
0.0
 40
2.5
  1
現在変換値
 11
329.05
 21
355.75
 31
0.0
100
AcDbText
 73
     1
  0
TEXT
  5
382
100
AcDbEntity
  8
1031
370
     9
  6
Continuous
 62
     7
100
AcDbText
 10
298.45
 20
359.75
 30
0.0
 40
2.5
  1
時間変化量
 11
298.45
 21
359.75
 31
0.0
100
AcDbText
 73
     1
  0
TEXT
  5
383
100
AcDbEntity
  8
1031
370
     9
  6
Continuous
 62
     7
100
AcDbText
 10
329.05
 20
355.75
 30
0.0
 40
2.5
  1
現在変換値
 11
329.05
 21
355.75
 31
0.0
100
AcDbText
 73
     1
  0
TEXT
  5
384
100
AcDbEntity
  8
1031
370
     9
  6
Continuous
 62
     7
100
AcDbText
 10
288.81
 20
338.5
 30
0.0
 40
3.0
  1
警 報
 41
0.735294
 11
288.81
 21
338.5
 31
0.0
100
AcDbText
 73
     1
  0
TEXT
  5
385
100
AcDbEntity
  8
1031
370
     9
  6
Continuous
 62
     7
100
AcDbText
 10
288.3
 20
300.25
 30
0.0
 40
3.0
  1
リセット
 41
0.7
 11
288.3
 21
300.25
 31
0.0
100
AcDbText
 73
     1
  0
TEXT
  5
386
100
AcDbEntity
  8
1031
370
     9
  6
Continuous
 62
     7
100
AcDbText
 10
380.09
 20
300.25
 30
0.0
 40
3.0
  1
リセット
 41
0.9
 11
380.09
 21
300.25
 31
0.0
100
AcDbText
 73
     1
  0
LINE
  5
387
100
AcDbEntity
  8
1031
370
    30
  6
HIDDEN
 62
     7
100
AcDbLine
 10
290.65
 20
371.2
 30
0.0
 11
293.85
 21
371.2
 31
0.0
  0
LINE
  5
388
100
AcDbEntity
  8
1031
370
    30
  6
HIDDEN
 62
     7
100
AcDbLine
 10
293.85
 20
376.75
 30
0.0
 11
290.65
 21
376.75
 31
0.0
  0
LINE
  5
389
100
AcDbEntity
  8
1031
370
    30
  6
HIDDEN
 62
     7
100
AcDbLine
 10
290.65
 20
376.75
 30
0.0
 11
290.65
 21
371.2
 31
0.0
  0
LINE
  5
38A
100
AcDbEntity
  8
1031
370
    30
  6
HIDDEN
 62
     7
100
AcDbLine
 10
293.85
 20
371.2
 30
0.0
 11
293.85
 21
376.75
 31
0.0
  0
LINE
  5
38B
100
AcDbEntity
  8
1031
370
    30
  6
HIDDEN
 62
     7
100
AcDbLine
 10
294.35
 20
371.2
 30
0.0
 11
297.55
 21
371.2
 31
0.0
  0
LINE
  5
38C
100
AcDbEntity
  8
1031
370
    30
  6
HIDDEN
 62
     7
100
AcDbLine
 10
297.55
 20
376.75
 30
0.0
 11
294.35
 21
376.75
 31
0.0
  0
LINE
  5
38D
100
AcDbEntity
  8
1031
370
    30
  6
HIDDEN
 62
     7
100
AcDbLine
 10
294.35
 20
376.75
 30
0.0
 11
294.35
 21
371.2
 31
0.0
  0
LINE
  5
38E
100
AcDbEntity
  8
1031
370
    30
  6
HIDDEN
 62
     7
100
AcDbLine
 10
297.55
 20
371.2
 30
0.0
 11
297.55
 21
376.75
 31
0.0
  0
LINE
  5
38F
100
AcDbEntity
  8
1031
370
    30
  6
HIDDEN
 62
     7
100
AcDbLine
 10
298.05
 20
371.2
 30
0.0
 11
301.25
 21
371.2
 31
0.0
  0
LINE
  5
390
100
AcDbEntity
  8
1031
370
    30
  6
HIDDEN
 62
     7
100
AcDbLine
 10
301.25
 20
376.75
 30
0.0
 11
298.05
 21
376.75
 31
0.0
  0
LINE
  5
391
100
AcDbEntity
  8
1031
370
    30
  6
HIDDEN
 62
     7
100
AcDbLine
 10
298.05
 20
376.75
 30
0.0
 11
298.05
 21
371.2
 31
0.0
  0
LINE
  5
392
100
AcDbEntity
  8
1031
370
    30
  6
HIDDEN
 62
     7
100
AcDbLine
 10
301.25
 20
371.2
 30
0.0
 11
301.25
 21
376.75
 31
0.0
  0
LINE
  5
393
100
AcDbEntity
  8
1031
370
    30
  6
HIDDEN
 62
     7
100
AcDbLine
 10
301.75
 20
371.2
 30
0.0
 11
304.95
 21
371.2
 31
0.0
  0
LINE
  5
394
100
AcDbEntity
  8
1031
370
    30
  6
HIDDEN
 62
     7
100
AcDbLine
 10
304.95
 20
376.75
 30
0.0
 11
301.75
 21
376.75
 31
0.0
  0
LINE
  5
395
100
AcDbEntity
  8
1031
370
    30
  6
HIDDEN
 62
     7
100
AcDbLine
 10
301.75
 20
376.75
 30
0.0
 11
301.75
 21
371.2
 31
0.0
  0
LINE
  5
396
100
AcDbEntity
  8
1031
370
    30
  6
HIDDEN
 62
     7
100
AcDbLine
 10
304.95
 20
371.2
 30
0.0
 11
304.95
 21
376.75
 31
0.0
  0
LINE
  5
397
100
AcDbEntity
  8
1031
370
    30
  6
HIDDEN
 62
     7
100
AcDbLine
 10
305.45
 20
371.2
 30
0.0
 11
308.65
 21
371.2
 31
0.0
  0
LINE
  5
398
100
AcDbEntity
  8
1031
370
    30
  6
HIDDEN
 62
     7
100
AcDbLine
 10
308.65
 20
376.75
 30
0.0
 11
305.45
 21
376.75
 31
0.0
  0
LINE
  5
399
100
AcDbEntity
  8
1031
370
    30
  6
HIDDEN
 62
     7
100
AcDbLine
 10
305.45
 20
376.75
 30
0.0
 11
305.45
 21
371.2
 31
0.0
  0
LINE
  5
39A
100
AcDbEntity
  8
1031
370
    30
  6
HIDDEN
 62
     7
100
AcDbLine
 10
308.65
 20
371.2
 30
0.0
 11
308.65
 21
376.75
 31
0.0
  0
LINE
  5
39B
100
AcDbEntity
  8
1031
370
    30
  6
HIDDEN
 62
     7
100
AcDbLine
 10
309.15
 20
371.2
 30
0.0
 11
312.35
 21
371.2
 31
0.0
  0
LINE
  5
39C
100
AcDbEntity
  8
1031
370
    30
  6
HIDDEN
 62
     7
100
AcDbLine
 10
312.35
 20
376.75
 30
0.0
 11
309.15
 21
376.75
 31
0.0
  0
LINE
  5
39D
100
AcDbEntity
  8
1031
370
    30
  6
HIDDEN
 62
     7
100
AcDbLine
 10
309.15
 20
376.75
 30
0.0
 11
309.15
 21
371.2
 31
0.0
  0
LINE
  5
39E
100
AcDbEntity
  8
1031
370
    30
  6
HIDDEN
 62
     7
100
AcDbLine
 10
312.35
 20
371.2
 30
0.0
 11
312.35
 21
376.75
 31
0.0
  0
LINE
  5
39F
100
AcDbEntity
  8
1031
370
    30
  6
HIDDEN
 62
     7
100
AcDbLine
 10
312.85
 20
371.2
 30
0.0
 11
316.05
 21
371.2
 31
0.0
  0
LINE
  5
3A0
100
AcDbEntity
  8
1031
370
    30
  6
HIDDEN
 62
     7
100
AcDbLine
 10
316.05
 20
376.75
 30
0.0
 11
312.85
 21
376.75
 31
0.0
  0
LINE
  5
3A1
100
AcDbEntity
  8
1031
370
    30
  6
HIDDEN
 62
     7
100
AcDbLine
 10
312.85
 20
376.75
 30
0.0
 11
312.85
 21
371.2
 31
0.0
  0
LINE
  5
3A2
100
AcDbEntity
  8
1031
370
    30
  6
HIDDEN
 62
     7
100
AcDbLine
 10
316.05
 20
371.2
 30
0.0
 11
316.05
 21
376.75
 31
0.0
  0
LINE
  5
3A3
100
AcDbEntity
  8
1031
370
    30
  6
HIDDEN
 62
     7
100
AcDbLine
 10
316.55
 20
371.2
 30
0.0
 11
319.75
 21
371.2
 31
0.0
  0
LINE
  5
3A4
100
AcDbEntity
  8
1031
370
    30
  6
HIDDEN
 62
     7
100
AcDbLine
 10
319.75
 20
376.75
 30
0.0
 11
316.55
 21
376.75
 31
0.0
  0
LINE
  5
3A5
100
AcDbEntity
  8
1031
370
    30
  6
HIDDEN
 62
     7
100
AcDbLine
 10
316.55
 20
376.75
 30
0.0
 11
316.55
 21
371.2
 31
0.0
  0
LINE
  5
3A6
100
AcDbEntity
  8
1031
370
    30
  6
HIDDEN
 62
     7
100
AcDbLine
 10
319.75
 20
371.2
 30
0.0
 11
319.75
 21
376.75
 31
0.0
  0
LINE
  5
3A7
100
AcDbEntity
  8
1031
370
    30
  6
HIDDEN
 62
     7
100
AcDbLine
 10
320.25
 20
371.2
 30
0.0
 11
323.45
 21
371.2
 31
0.0
  0
LINE
  5
3A8
100
AcDbEntity
  8
1031
370
    30
  6
HIDDEN
 62
     7
100
AcDbLine
 10
323.45
 20
376.75
 30
0.0
 11
320.25
 21
376.75
 31
0.0
  0
LINE
  5
3A9
100
AcDbEntity
  8
1031
370
    30
  6
HIDDEN
 62
     7
100
AcDbLine
 10
320.25
 20
376.75
 30
0.0
 11
320.25
 21
371.2
 31
0.0
  0
LINE
  5
3AA
100
AcDbEntity
  8
1031
370
    30
  6
HIDDEN
 62
     7
100
AcDbLine
 10
323.45
 20
371.2
 30
0.0
 11
323.45
 21
376.75
 31
0.0
  0
LINE
  5
3AB
100
AcDbEntity
  8
1031
370
    30
  6
HIDDEN
 62
     7
100
AcDbLine
 10
323.95
 20
371.2
 30
0.0
 11
327.15
 21
371.2
 31
0.0
  0
LINE
  5
3AC
100
AcDbEntity
  8
1031
370
    30
  6
HIDDEN
 62
     7
100
AcDbLine
 10
327.15
 20
376.75
 30
0.0
 11
323.95
 21
376.75
 31
0.0
  0
LINE
  5
3AD
100
AcDbEntity
  8
1031
370
    30
  6
HIDDEN
 62
     7
100
AcDbLine
 10
323.95
 20
376.75
 30
0.0
 11
323.95
 21
371.2
 31
0.0
  0
LINE
  5
3AE
100
AcDbEntity
  8
1031
370
    30
  6
HIDDEN
 62
     7
100
AcDbLine
 10
327.15
 20
371.2
 30
0.0
 11
327.15
 21
376.75
 31
0.0
  0
LINE
  5
3AF
100
AcDbEntity
  8
1031
370
    30
  6
HIDDEN
 62
     7
100
AcDbLine
 10
327.65
 20
371.2
 30
0.0
 11
330.85
 21
371.2
 31
0.0
  0
LINE
  5
3B0
100
AcDbEntity
  8
1031
370
    30
  6
HIDDEN
 62
     7
100
AcDbLine
 10
330.85
 20
376.75
 30
0.0
 11
327.65
 21
376.75
 31
0.0
  0
LINE
  5
3B1
100
AcDbEntity
  8
1031
370
    30
  6
HIDDEN
 62
     7
100
AcDbLine
 10
327.65
 20
376.75
 30
0.0
 11
327.65
 21
371.2
 31
0.0
  0
LINE
  5
3B2
100
AcDbEntity
  8
1031
370
    30
  6
HIDDEN
 62
     7
100
AcDbLine
 10
330.85
 20
371.2
 30
0.0
 11
330.85
 21
376.75
 31
0.0
  0
LINE
  5
3B3
100
AcDbEntity
  8
1031
370
    30
  6
HIDDEN
 62
     7
100
AcDbLine
 10
331.35
 20
371.2
 30
0.0
 11
334.55
 21
371.2
 31
0.0
  0
LINE
  5
3B4
100
AcDbEntity
  8
1031
370
    30
  6
HIDDEN
 62
     7
100
AcDbLine
 10
334.55
 20
376.75
 30
0.0
 11
331.35
 21
376.75
 31
0.0
  0
LINE
  5
3B5
100
AcDbEntity
  8
1031
370
    30
  6
HIDDEN
 62
     7
100
AcDbLine
 10
331.35
 20
376.75
 30
0.0
 11
331.35
 21
371.2
 31
0.0
  0
LINE
  5
3B6
100
AcDbEntity
  8
1031
370
    30
  6
HIDDEN
 62
     7
100
AcDbLine
 10
334.55
 20
371.2
 30
0.0
 11
334.55
 21
376.75
 31
0.0
  0
LINE
  5
3B7
100
AcDbEntity
  8
1031
370
    30
  6
HIDDEN
 62
     7
100
AcDbLine
 10
335.05
 20
371.2
 30
0.0
 11
338.25
 21
371.2
 31
0.0
  0
LINE
  5
3B8
100
AcDbEntity
  8
1031
370
    30
  6
HIDDEN
 62
     7
100
AcDbLine
 10
338.25
 20
376.75
 30
0.0
 11
335.05
 21
376.75
 31
0.0
  0
LINE
  5
3B9
100
AcDbEntity
  8
1031
370
    30
  6
HIDDEN
 62
     7
100
AcDbLine
 10
335.05
 20
376.75
 30
0.0
 11
335.05
 21
371.2
 31
0.0
  0
LINE
  5
3BA
100
AcDbEntity
  8
1031
370
    30
  6
HIDDEN
 62
     7
100
AcDbLine
 10
338.25
 20
371.2
 30
0.0
 11
338.25
 21
376.75
 31
0.0
  0
LINE
  5
3BB
100
AcDbEntity
  8
1031
370
    30
  6
HIDDEN
 62
     7
100
AcDbLine
 10
338.75
 20
371.2
 30
0.0
 11
341.95
 21
371.2
 31
0.0
  0
LINE
  5
3BC
100
AcDbEntity
  8
1031
370
    30
  6
HIDDEN
 62
     7
100
AcDbLine
 10
341.95
 20
376.75
 30
0.0
 11
338.75
 21
376.75
 31
0.0
  0
LINE
  5
3BD
100
AcDbEntity
  8
1031
370
    30
  6
HIDDEN
 62
     7
100
AcDbLine
 10
338.75
 20
376.75
 30
0.0
 11
338.75
 21
371.2
 31
0.0
  0
LINE
  5
3BE
100
AcDbEntity
  8
1031
370
    30
  6
HIDDEN
 62
     7
100
AcDbLine
 10
341.95
 20
371.2
 30
0.0
 11
341.95
 21
376.75
 31
0.0
  0
LINE
  5
3BF
100
AcDbEntity
  8
1031
370
    30
  6
HIDDEN
 62
     7
100
AcDbLine
 10
342.45
 20
371.2
 30
0.0
 11
345.65
 21
371.2
 31
0.0
  0
LINE
  5
3C0
100
AcDbEntity
  8
1031
370
    30
  6
HIDDEN
 62
     7
100
AcDbLine
 10
345.65
 20
376.75
 30
0.0
 11
342.45
 21
376.75
 31
0.0
  0
LINE
  5
3C1
100
AcDbEntity
  8
1031
370
    30
  6
HIDDEN
 62
     7
100
AcDbLine
 10
342.45
 20
376.75
 30
0.0
 11
342.45
 21
371.2
 31
0.0
  0
LINE
  5
3C2
100
AcDbEntity
  8
1031
370
    30
  6
HIDDEN
 62
     7
100
AcDbLine
 10
345.65
 20
371.2
 30
0.0
 11
345.65
 21
376.75
 31
0.0
  0
LINE
  5
3C3
100
AcDbEntity
  8
1031
370
    30
  6
HIDDEN
 62
     7
100
AcDbLine
 10
346.15
 20
371.2
 30
0.0
 11
349.35
 21
371.2
 31
0.0
  0
LINE
  5
3C4
100
AcDbEntity
  8
1031
370
    30
  6
HIDDEN
 62
     7
100
AcDbLine
 10
349.35
 20
376.75
 30
0.0
 11
346.15
 21
376.75
 31
0.0
  0
LINE
  5
3C5
100
AcDbEntity
  8
1031
370
    30
  6
HIDDEN
 62
     7
100
AcDbLine
 10
346.15
 20
376.75
 30
0.0
 11
346.15
 21
371.2
 31
0.0
  0
LINE
  5
3C6
100
AcDbEntity
  8
1031
370
    30
  6
HIDDEN
 62
     7
100
AcDbLine
 10
349.35
 20
371.2
 30
0.0
 11
349.35
 21
376.75
 31
0.0
  0
LINE
  5
3C7
100
AcDbEntity
  8
1031
370
    30
  6
HIDDEN
 62
     7
100
AcDbLine
 10
290.65
 20
365.25
 30
0.0
 11
293.85
 21
365.25
 31
0.0
  0
LINE
  5
3C8
100
AcDbEntity
  8
1031
370
    30
  6
HIDDEN
 62
     7
100
AcDbLine
 10
293.85
 20
370.8
 30
0.0
 11
290.65
 21
370.8
 31
0.0
  0
LINE
  5
3C9
100
AcDbEntity
  8
1031
370
    30
  6
HIDDEN
 62
     7
100
AcDbLine
 10
290.65
 20
370.8
 30
0.0
 11
290.65
 21
365.25
 31
0.0
  0
LINE
  5
3CA
100
AcDbEntity
  8
1031
370
    30
  6
HIDDEN
 62
     7
100
AcDbLine
 10
293.85
 20
365.25
 30
0.0
 11
293.85
 21
370.8
 31
0.0
  0
LINE
  5
3CB
100
AcDbEntity
  8
1031
370
    30
  6
HIDDEN
 62
     7
100
AcDbLine
 10
294.35
 20
365.25
 30
0.0
 11
297.55
 21
365.25
 31
0.0
  0
LINE
  5
3CC
100
AcDbEntity
  8
1031
370
    30
  6
HIDDEN
 62
     7
100
AcDbLine
 10
297.55
 20
370.8
 30
0.0
 11
294.35
 21
370.8
 31
0.0
  0
LINE
  5
3CD
100
AcDbEntity
  8
1031
370
    30
  6
HIDDEN
 62
     7
100
AcDbLine
 10
294.35
 20
370.8
 30
0.0
 11
294.35
 21
365.25
 31
0.0
  0
LINE
  5
3CE
100
AcDbEntity
  8
1031
370
    30
  6
HIDDEN
 62
     7
100
AcDbLine
 10
297.55
 20
365.25
 30
0.0
 11
297.55
 21
370.8
 31
0.0
  0
LINE
  5
3CF
100
AcDbEntity
  8
1031
370
    30
  6
HIDDEN
 62
     7
100
AcDbLine
 10
298.05
 20
365.25
 30
0.0
 11
301.25
 21
365.25
 31
0.0
  0
LINE
  5
3D0
100
AcDbEntity
  8
1031
370
    30
  6
HIDDEN
 62
     7
100
AcDbLine
 10
301.25
 20
370.8
 30
0.0
 11
298.05
 21
370.8
 31
0.0
  0
LINE
  5
3D1
100
AcDbEntity
  8
1031
370
    30
  6
HIDDEN
 62
     7
100
AcDbLine
 10
298.05
 20
370.8
 30
0.0
 11
298.05
 21
365.25
 31
0.0
  0
LINE
  5
3D2
100
AcDbEntity
  8
1031
370
    30
  6
HIDDEN
 62
     7
100
AcDbLine
 10
301.25
 20
365.25
 30
0.0
 11
301.25
 21
370.8
 31
0.0
  0
LINE
  5
3D3
100
AcDbEntity
  8
1031
370
    30
  6
HIDDEN
 62
     7
100
AcDbLine
 10
301.75
 20
365.25
 30
0.0
 11
304.95
 21
365.25
 31
0.0
  0
LINE
  5
3D4
100
AcDbEntity
  8
1031
370
    30
  6
HIDDEN
 62
     7
100
AcDbLine
 10
304.95
 20
370.8
 30
0.0
 11
301.75
 21
370.8
 31
0.0
  0
LINE
  5
3D5
100
AcDbEntity
  8
1031
370
    30
  6
HIDDEN
 62
     7
100
AcDbLine
 10
301.75
 20
370.8
 30
0.0
 11
301.75
 21
365.25
 31
0.0
  0
LINE
  5
3D6
100
AcDbEntity
  8
1031
370
    30
  6
HIDDEN
 62
     7
100
AcDbLine
 10
304.95
 20
365.25
 30
0.0
 11
304.95
 21
370.8
 31
0.0
  0
LINE
  5
3D7
100
AcDbEntity
  8
1031
370
    30
  6
HIDDEN
 62
     7
100
AcDbLine
 10
305.45
 20
365.25
 30
0.0
 11
308.65
 21
365.25
 31
0.0
  0
LINE
  5
3D8
100
AcDbEntity
  8
1031
370
    30
  6
HIDDEN
 62
     7
100
AcDbLine
 10
308.65
 20
370.8
 30
0.0
 11
305.45
 21
370.8
 31
0.0
  0
LINE
  5
3D9
100
AcDbEntity
  8
1031
370
    30
  6
HIDDEN
 62
     7
100
AcDbLine
 10
305.45
 20
370.8
 30
0.0
 11
305.45
 21
365.25
 31
0.0
  0
LINE
  5
3DA
100
AcDbEntity
  8
1031
370
    30
  6
HIDDEN
 62
     7
100
AcDbLine
 10
308.65
 20
365.25
 30
0.0
 11
308.65
 21
370.8
 31
0.0
  0
LINE
  5
3DB
100
AcDbEntity
  8
1031
370
    30
  6
HIDDEN
 62
     7
100
AcDbLine
 10
309.15
 20
365.25
 30
0.0
 11
312.35
 21
365.25
 31
0.0
  0
LINE
  5
3DC
100
AcDbEntity
  8
1031
370
    30
  6
HIDDEN
 62
     7
100
AcDbLine
 10
312.35
 20
370.8
 30
0.0
 11
309.15
 21
370.8
 31
0.0
  0
LINE
  5
3DD
100
AcDbEntity
  8
1031
370
    30
  6
HIDDEN
 62
     7
100
AcDbLine
 10
309.15
 20
370.8
 30
0.0
 11
309.15
 21
365.25
 31
0.0
  0
LINE
  5
3DE
100
AcDbEntity
  8
1031
370
    30
  6
HIDDEN
 62
     7
100
AcDbLine
 10
312.35
 20
365.25
 30
0.0
 11
312.35
 21
370.8
 31
0.0
  0
LINE
  5
3DF
100
AcDbEntity
  8
1031
370
    30
  6
HIDDEN
 62
     7
100
AcDbLine
 10
312.85
 20
365.25
 30
0.0
 11
316.05
 21
365.25
 31
0.0
  0
LINE
  5
3E0
100
AcDbEntity
  8
1031
370
    30
  6
HIDDEN
 62
     7
100
AcDbLine
 10
316.05
 20
370.8
 30
0.0
 11
312.85
 21
370.8
 31
0.0
  0
LINE
  5
3E1
100
AcDbEntity
  8
1031
370
    30
  6
HIDDEN
 62
     7
100
AcDbLine
 10
312.85
 20
370.8
 30
0.0
 11
312.85
 21
365.25
 31
0.0
  0
LINE
  5
3E2
100
AcDbEntity
  8
1031
370
    30
  6
HIDDEN
 62
     7
100
AcDbLine
 10
316.05
 20
365.25
 30
0.0
 11
316.05
 21
370.8
 31
0.0
  0
LINE
  5
3E3
100
AcDbEntity
  8
1031
370
    30
  6
HIDDEN
 62
     7
100
AcDbLine
 10
316.55
 20
365.25
 30
0.0
 11
319.75
 21
365.25
 31
0.0
  0
LINE
  5
3E4
100
AcDbEntity
  8
1031
370
    30
  6
HIDDEN
 62
     7
100
AcDbLine
 10
319.75
 20
370.8
 30
0.0
 11
316.55
 21
370.8
 31
0.0
  0
LINE
  5
3E5
100
AcDbEntity
  8
1031
370
    30
  6
HIDDEN
 62
     7
100
AcDbLine
 10
316.55
 20
370.8
 30
0.0
 11
316.55
 21
365.25
 31
0.0
  0
LINE
  5
3E6
100
AcDbEntity
  8
1031
370
    30
  6
HIDDEN
 62
     7
100
AcDbLine
 10
319.75
 20
365.25
 30
0.0
 11
319.75
 21
370.8
 31
0.0
  0
LINE
  5
3E7
100
AcDbEntity
  8
1031
370
    30
  6
HIDDEN
 62
     7
100
AcDbLine
 10
320.25
 20
365.25
 30
0.0
 11
323.45
 21
365.25
 31
0.0
  0
LINE
  5
3E8
100
AcDbEntity
  8
1031
370
    30
  6
HIDDEN
 62
     7
100
AcDbLine
 10
323.45
 20
370.8
 30
0.0
 11
320.25
 21
370.8
 31
0.0
  0
LINE
  5
3E9
100
AcDbEntity
  8
1031
370
    30
  6
HIDDEN
 62
     7
100
AcDbLine
 10
320.25
 20
370.8
 30
0.0
 11
320.25
 21
365.25
 31
0.0
  0
LINE
  5
3EA
100
AcDbEntity
  8
1031
370
    30
  6
HIDDEN
 62
     7
100
AcDbLine
 10
323.45
 20
365.25
 30
0.0
 11
323.45
 21
370.8
 31
0.0
  0
LINE
  5
3EB
100
AcDbEntity
  8
1031
370
    30
  6
HIDDEN
 62
     7
100
AcDbLine
 10
323.95
 20
365.25
 30
0.0
 11
327.15
 21
365.25
 31
0.0
  0
LINE
  5
3EC
100
AcDbEntity
  8
1031
370
    30
  6
HIDDEN
 62
     7
100
AcDbLine
 10
327.15
 20
370.8
 30
0.0
 11
323.95
 21
370.8
 31
0.0
  0
LINE
  5
3ED
100
AcDbEntity
  8
1031
370
    30
  6
HIDDEN
 62
     7
100
AcDbLine
 10
323.95
 20
370.8
 30
0.0
 11
323.95
 21
365.25
 31
0.0
  0
LINE
  5
3EE
100
AcDbEntity
  8
1031
370
    30
  6
HIDDEN
 62
     7
100
AcDbLine
 10
327.15
 20
365.25
 30
0.0
 11
327.15
 21
370.8
 31
0.0
  0
LINE
  5
3EF
100
AcDbEntity
  8
1031
370
    30
  6
HIDDEN
 62
     7
100
AcDbLine
 10
327.65
 20
365.25
 30
0.0
 11
330.85
 21
365.25
 31
0.0
  0
LINE
  5
3F0
100
AcDbEntity
  8
1031
370
    30
  6
HIDDEN
 62
     7
100
AcDbLine
 10
330.85
 20
370.8
 30
0.0
 11
327.65
 21
370.8
 31
0.0
  0
LINE
  5
3F1
100
AcDbEntity
  8
1031
370
    30
  6
HIDDEN
 62
     7
100
AcDbLine
 10
327.65
 20
370.8
 30
0.0
 11
327.65
 21
365.25
 31
0.0
  0
LINE
  5
3F2
100
AcDbEntity
  8
1031
370
    30
  6
HIDDEN
 62
     7
100
AcDbLine
 10
330.85
 20
365.25
 30
0.0
 11
330.85
 21
370.8
 31
0.0
  0
LINE
  5
3F3
100
AcDbEntity
  8
1031
370
    30
  6
HIDDEN
 62
     7
100
AcDbLine
 10
331.35
 20
365.25
 30
0.0
 11
334.55
 21
365.25
 31
0.0
  0
LINE
  5
3F4
100
AcDbEntity
  8
1031
370
    30
  6
HIDDEN
 62
     7
100
AcDbLine
 10
334.55
 20
370.8
 30
0.0
 11
331.35
 21
370.8
 31
0.0
  0
LINE
  5
3F5
100
AcDbEntity
  8
1031
370
    30
  6
HIDDEN
 62
     7
100
AcDbLine
 10
331.35
 20
370.8
 30
0.0
 11
331.35
 21
365.25
 31
0.0
  0
LINE
  5
3F6
100
AcDbEntity
  8
1031
370
    30
  6
HIDDEN
 62
     7
100
AcDbLine
 10
334.55
 20
365.25
 30
0.0
 11
334.55
 21
370.8
 31
0.0
  0
LINE
  5
3F7
100
AcDbEntity
  8
1031
370
    30
  6
HIDDEN
 62
     7
100
AcDbLine
 10
335.05
 20
365.25
 30
0.0
 11
338.25
 21
365.25
 31
0.0
  0
LINE
  5
3F8
100
AcDbEntity
  8
1031
370
    30
  6
HIDDEN
 62
     7
100
AcDbLine
 10
338.25
 20
370.8
 30
0.0
 11
335.05
 21
370.8
 31
0.0
  0
LINE
  5
3F9
100
AcDbEntity
  8
1031
370
    30
  6
HIDDEN
 62
     7
100
AcDbLine
 10
335.05
 20
370.8
 30
0.0
 11
335.05
 21
365.25
 31
0.0
  0
LINE
  5
3FA
100
AcDbEntity
  8
1031
370
    30
  6
HIDDEN
 62
     7
100
AcDbLine
 10
338.25
 20
365.25
 30
0.0
 11
338.25
 21
370.8
 31
0.0
  0
LINE
  5
3FB
100
AcDbEntity
  8
1031
370
    30
  6
HIDDEN
 62
     7
100
AcDbLine
 10
338.75
 20
365.25
 30
0.0
 11
341.95
 21
365.25
 31
0.0
  0
LINE
  5
3FC
100
AcDbEntity
  8
1031
370
    30
  6
HIDDEN
 62
     7
100
AcDbLine
 10
341.95
 20
370.8
 30
0.0
 11
338.75
 21
370.8
 31
0.0
  0
LINE
  5
3FD
100
AcDbEntity
  8
1031
370
    30
  6
HIDDEN
 62
     7
100
AcDbLine
 10
338.75
 20
370.8
 30
0.0
 11
338.75
 21
365.25
 31
0.0
  0
LINE
  5
3FE
100
AcDbEntity
  8
1031
370
    30
  6
HIDDEN
 62
     7
100
AcDbLine
 10
341.95
 20
365.25
 30
0.0
 11
341.95
 21
370.8
 31
0.0
  0
LINE
  5
3FF
100
AcDbEntity
  8
1031
370
    30
  6
HIDDEN
 62
     7
100
AcDbLine
 10
342.45
 20
365.25
 30
0.0
 11
345.65
 21
365.25
 31
0.0
  0
LINE
  5
400
100
AcDbEntity
  8
1031
370
    30
  6
HIDDEN
 62
     7
100
AcDbLine
 10
345.65
 20
370.8
 30
0.0
 11
342.45
 21
370.8
 31
0.0
  0
LINE
  5
401
100
AcDbEntity
  8
1031
370
    30
  6
HIDDEN
 62
     7
100
AcDbLine
 10
342.45
 20
370.8
 30
0.0
 11
342.45
 21
365.25
 31
0.0
  0
LINE
  5
402
100
AcDbEntity
  8
1031
370
    30
  6
HIDDEN
 62
     7
100
AcDbLine
 10
345.65
 20
365.25
 30
0.0
 11
345.65
 21
370.8
 31
0.0
  0
LINE
  5
403
100
AcDbEntity
  8
1031
370
    30
  6
HIDDEN
 62
     7
100
AcDbLine
 10
346.15
 20
365.25
 30
0.0
 11
349.35
 21
365.25
 31
0.0
  0
LINE
  5
404
100
AcDbEntity
  8
1031
370
    30
  6
HIDDEN
 62
     7
100
AcDbLine
 10
349.35
 20
370.8
 30
0.0
 11
346.15
 21
370.8
 31
0.0
  0
LINE
  5
405
100
AcDbEntity
  8
1031
370
    30
  6
HIDDEN
 62
     7
100
AcDbLine
 10
346.15
 20
370.8
 30
0.0
 11
346.15
 21
365.25
 31
0.0
  0
LINE
  5
406
100
AcDbEntity
  8
1031
370
    30
  6
HIDDEN
 62
     7
100
AcDbLine
 10
349.35
 20
365.25
 30
0.0
 11
349.35
 21
370.8
 31
0.0
  0
TEXT
  5
407
100
AcDbEntity
  8
1031
370
     9
  6
Continuous
 62
     7
100
AcDbText
 10
295.1375
 20
365.525
 30
0.0
 40
5.0
  1
0
 41
0.325
 11
295.1375
 21
365.525
 31
0.0
100
AcDbText
 73
     1
  0
TEXT
  5
408
100
AcDbEntity
  8
1031
370
     9
  6
Continuous
 62
     7
100
AcDbText
 10
298.8375
 20
365.525
 30
0.0
 40
5.0
  1
0
 41
0.325
 11
298.8375
 21
365.525
 31
0.0
100
AcDbText
 73
     1
  0
TEXT
  5
409
100
AcDbEntity
  8
1031
370
     9
  6
Continuous
 62
     7
100
AcDbText
 10
302.5375
 20
365.525
 30
0.0
 40
5.0
  1
.
 41
0.195
 11
302.5375
 21
365.525
 31
0.0
100
AcDbText
 73
     1
  0
TEXT
  5
40A
100
AcDbEntity
  8
1031
370
     9
  6
Continuous
 62
     7
100
AcDbText
 10
306.2375
 20
365.525
 30
0.0
 40
5.0
  1
0
 41
0.325
 11
306.2375
 21
365.525
 31
0.0
100
AcDbText
 73
     1
  0
TEXT
  5
40B
100
AcDbEntity
  8
1031
370
     9
  6
Continuous
 62
     7
100
AcDbText
 10
313.6375
 20
365.525
 30
0.0
 40
5.0
  1
ﾟ
 41
0.325
 11
313.6375
 21
365.525
 31
0.0
100
AcDbText
 73
     1
  0
TEXT
  5
40C
100
AcDbEntity
  8
1031
370
     9
  6
Continuous
 62
     7
100
AcDbText
 10
346.9375
 20
371.475
 30
0.0
 40
5.0
  1
5
 41
0.325
 11
346.9375
 21
371.475
 31
0.0
100
AcDbText
 73
     1
  0
TEXT
  5
40D
100
AcDbEntity
  8
1031
370
     9
  6
Continuous
 62
     7
100
AcDbText
 10
339.5375
 20
371.475
 30
0.0
 40
5.0
  1
2
 41
0.325
 11
339.5375
 21
371.475
 31
0.0
100
AcDbText
 73
     1
  0
TEXT
  5
40E
100
AcDbEntity
  8
1031
370
     9
  6
Continuous
 62
     7
100
AcDbText
 10
291.4375
 20
365.525
 30
0.0
 40
5.0
  1
+
 41
0.325
 11
291.4375
 21
365.525
 31
0.0
100
AcDbText
 73
     1
  0
TEXT
  5
40F
100
AcDbEntity
  8
1031
370
     9
  6
Continuous
 62
     7
100
AcDbText
 10
343.2375
 20
371.475
 30
0.0
 40
5.0
  1
.
 41
0.195
 11
343.2375
 21
371.475
 31
0.0
100
AcDbText
 73
     1
  0
TEXT
  5
410
100
AcDbEntity
  8
1031
370
     9
  6
Continuous
 62
     7
100
AcDbText
 10
295.1375
 20
371.475
 30
0.0
 40
5.0
  1
2
 41
0.325
 11
295.1375
 21
371.475
 31
0.0
100
AcDbText
 73
     1
  0
TEXT
  5
411
100
AcDbEntity
  8
1031
370
     9
  6
Continuous
 62
     7
100
AcDbText
 10
298.8375
 20
371.475
 30
0.0
 40
5.0
  1
/
 41
0.325
 11
298.8375
 21
371.475
 31
0.0
100
AcDbText
 73
     1
  0
TEXT
  5
412
100
AcDbEntity
  8
1031
370
     9
  6
Continuous
 62
     7
100
AcDbText
 10
306.2375
 20
371.475
 30
0.0
 40
5.0
  1
1
 41
0.325
 11
306.2375
 21
371.475
 31
0.0
100
AcDbText
 73
     1
  0
TEXT
  5
413
100
AcDbEntity
  8
1031
370
     9
  6
Continuous
 62
     7
100
AcDbText
 10
291.4375
 20
371.475
 30
0.0
 40
5.0
  1
1
 41
0.325
 11
291.4375
 21
371.475
 31
0.0
100
AcDbText
 73
     1
  0
TEXT
  5
414
100
AcDbEntity
  8
1031
370
     9
  6
Continuous
 62
     7
100
AcDbText
 10
302.5375
 20
371.475
 30
0.0
 40
5.0
  1
3
 41
0.325
 11
302.5375
 21
371.475
 31
0.0
100
AcDbText
 73
     1
  0
TEXT
  5
415
100
AcDbEntity
  8
1031
370
     9
  6
Continuous
 62
     7
100
AcDbText
 10
309.9375
 20
371.475
 30
0.0
 40
5.0
  1
 
 41
0.195
 11
309.9375
 21
371.475
 31
0.0
100
AcDbText
 73
     1
  0
TEXT
  5
416
100
AcDbEntity
  8
1031
370
     9
  6
Continuous
 62
     7
100
AcDbText
 10
313.6375
 20
371.475
 30
0.0
 40
5.0
  1
1
 41
0.325
 11
313.6375
 21
371.475
 31
0.0
100
AcDbText
 73
     1
  0
TEXT
  5
417
100
AcDbEntity
  8
1031
370
     9
  6
Continuous
 62
     7
100
AcDbText
 10
317.3375
 20
371.475
 30
0.0
 40
5.0
  1
4
 41
0.325
 11
317.3375
 21
371.475
 31
0.0
100
AcDbText
 73
     1
  0
TEXT
  5
418
100
AcDbEntity
  8
1031
370
     9
  6
Continuous
 62
     7
100
AcDbText
 10
321.0375
 20
371.475
 30
0.0
 40
5.0
  1
:
 41
0.195
 11
321.0375
 21
371.475
 31
0.0
100
AcDbText
 73
     1
  0
TEXT
  5
419
100
AcDbEntity
  8
1031
370
     9
  6
Continuous
 62
     7
100
AcDbText
 10
324.7375
 20
371.475
 30
0.0
 40
5.0
  1
4
 41
0.325
 11
324.7375
 21
371.475
 31
0.0
100
AcDbText
 73
     1
  0
TEXT
  5
41A
100
AcDbEntity
  8
1031
370
     9
  6
Continuous
 62
     7
100
AcDbText
 10
335.8375
 20
371.475
 30
0.0
 40
5.0
  1
1
 41
0.325
 11
335.8375
 21
371.475
 31
0.0
100
AcDbText
 73
     1
  0
TEXT
  5
41B
100
AcDbEntity
  8
1031
370
     9
  6
Continuous
 62
     7
100
AcDbText
 10
328.4375
 20
371.475
 30
0.0
 40
5.0
  1
0
 41
0.325
 11
328.4375
 21
371.475
 31
0.0
100
AcDbText
 73
     1
  0
TEXT
  5
41C
100
AcDbEntity
  8
1031
370
     9
  6
Continuous
 62
     7
100
AcDbText
 10
309.9375
 20
365.525
 30
0.0
 40
5.0
  1
0
 41
0.325
 11
309.9375
 21
365.525
 31
0.0
100
AcDbText
 73
     1
  0
TEXT
  5
41D
100
AcDbEntity
  8
1031
370
     9
  6
Continuous
 62
     7
100
AcDbText
 10
324.7375
 20
365.525
 30
0.0
 40
5.0
  1
0
 41
0.325
 11
324.7375
 21
365.525
 31
0.0
100
AcDbText
 73
     1
  0
TEXT
  5
41E
100
AcDbEntity
  8
1031
370
     9
  6
Continuous
 62
     7
100
AcDbText
 10
328.4375
 20
365.525
 30
0.0
 40
5.0
  1
0
 41
0.325
 11
328.4375
 21
365.525
 31
0.0
100
AcDbText
 73
     1
  0
TEXT
  5
41F
100
AcDbEntity
  8
1031
370
     9
  6
Continuous
 62
     7
100
AcDbText
 10
332.1375
 20
365.525
 30
0.0
 40
5.0
  1
.
 41
0.195
 11
332.1375
 21
365.525
 31
0.0
100
AcDbText
 73
     1
  0
TEXT
  5
420
100
AcDbEntity
  8
1031
370
     9
  6
Continuous
 62
     7
100
AcDbText
 10
335.8375
 20
365.525
 30
0.0
 40
5.0
  1
0
 41
0.325
 11
335.8375
 21
365.525
 31
0.0
100
AcDbText
 73
     1
  0
TEXT
  5
421
100
AcDbEntity
  8
1031
370
     9
  6
Continuous
 62
     7
100
AcDbText
 10
321.0375
 20
365.525
 30
0.0
 40
5.0
  1
+
 41
0.325
 11
321.0375
 21
365.525
 31
0.0
100
AcDbText
 73
     1
  0
TEXT
  5
422
100
AcDbEntity
  8
1031
370
     9
  6
Continuous
 62
     7
100
AcDbText
 10
339.5375
 20
365.525
 30
0.0
 40
5.0
  1
0
 41
0.325
 11
339.5375
 21
365.525
 31
0.0
100
AcDbText
 73
     1
  0
TEXT
  5
423
100
AcDbEntity
  8
1031
370
     9
  6
Continuous
 62
     7
100
AcDbText
 10
343.2375
 20
365.525
 30
0.0
 40
5.0
  1
ﾟ
 41
0.325
 11
343.2375
 21
365.525
 31
0.0
100
AcDbText
 73
     1
  0
POINT
  5
424
100
AcDbEntity
  8
1031
370
     9
  6
Continuous
 62
     7
100
AcDbPoint
 10
333.0
 20
377.0
 30
0.0
  0
LINE
  5
425
100
AcDbEntity
  8
1031
370
    30
  6
Continuous
 62
     7
100
AcDbLine
 10
281.7
 20
326.9
 30
0.0
 11
305.7
 21
326.9
 31
0.0
  0
LINE
  5
426
100
AcDbEntity
  8
1031
370
    30
  6
Continuous
 62
     7
100
AcDbLine
 10
281.7
 20
324.7
 30
0.0
 11
305.7
 21
324.7
 31
0.0
  0
LINE
  5
427
100
AcDbEntity
  8
1031
370
    30
  6
Continuous
 62
     7
100
AcDbLine
 10
281.7
 20
326.9
 30
0.0
 11
281.7
 21
324.7
 31
0.0
  0
LINE
  5
428
100
AcDbEntity
  8
1031
370
    30
  6
Continuous
 62
     7
100
AcDbLine
 10
305.7
 20
326.9
 30
0.0
 11
305.7
 21
324.7
 31
0.0
  0
LINE
  5
429
100
AcDbEntity
  8
1031
370
    30
  6
Continuous
 62
     7
100
AcDbLine
 10
305.1
 20
239.7
 30
0.0
 11
282.3
 21
239.7
 31
0.0
  0
ARC
  5
42A
100
AcDbEntity
  8
1031
370
    30
  6
Continuous
 62
     7
100
AcDbCircle
 10
305.1
 20
239.1
 30
0.0
 40
0.6
100
AcDbArc
 50
0.0
 51
90.0
  0
ARC
  5
42B
100
AcDbEntity
  8
1031
370
    30
  6
Continuous
 62
     7
100
AcDbCircle
 10
282.3
 20
239.1
 30
0.0
 40
0.6
100
AcDbArc
 50
90.0
 51
180.0
  0
LINE
  5
42C
100
AcDbEntity
  8
1031
370
    30
  6
Continuous
 62
     7
100
AcDbLine
 10
488.8
 20
324.7
 30
0.0
 11
488.8
 21
326.9
 31
0.0
  0
LINE
  5
42D
100
AcDbEntity
  8
1031
370
    30
  6
Continuous
 62
     7
100
AcDbLine
 10
488.8
 20
324.7
 30
0.0
 11
503.5
 21
324.7
 31
0.0
  0
LINE
  5
42E
100
AcDbEntity
  8
1031
370
    30
  6
Continuous
 62
     7
100
AcDbLine
 10
488.8
 20
326.9
 30
0.0
 11
503.5
 21
326.9
 31
0.0
  0
LINE
  5
42F
100
AcDbEntity
  8
1031
370
    30
  6
Continuous
 62
     7
100
AcDbLine
 10
281.7
 20
225.0
 30
0.0
 11
281.7
 21
239.1
 31
0.0
  0
LINE
  5
430
100
AcDbEntity
  8
1031
370
    30
  6
Continuous
 62
     7
100
AcDbLine
 10
305.7
 20
225.0
 30
0.0
 11
305.7
 21
239.1
 31
0.0
  0
INSERT
  5
482
100
AcDbEntity
  8
0
370
     9
  6
Continuous
 62
     7
100
AcDbBlockReference
  2
*G1
 10
0.0
 20
0.0
 30
0.0
  0
INSERT
  5
498
100
AcDbEntity
  8
0
370
     9
  6
Continuous
 62
     7
100
AcDbBlockReference
  2
*G2
 10
0.0
 20
0.0
 30
0.0
  0
INSERT
  5
4AE
100
AcDbEntity
  8
0
370
     9
  6
Continuous
 62
     7
100
AcDbBlockReference
  2
*G5
 10
0.0
 20
0.0
 30
0.0
  0
INSERT
  5
4C4
100
AcDbEntity
  8
0
370
     9
  6
Continuous
 62
     7
100
AcDbBlockReference
  2
*G8
 10
0.0
 20
0.0
 30
0.0
  0
INSERT
  5
4DC
100
AcDbEntity
  8
0
370
     9
  6
Continuous
 62
     7
100
AcDbBlockReference
  2
*G11
 10
0.0
 20
0.0
 30
0.0
  0
INSERT
  5
514
100
AcDbEntity
  8
0
370
     9
  6
Continuous
 62
     7
100
AcDbBlockReference
  2
*G14
 10
0.0
 20
0.0
 30
0.0
  0
INSERT
  5
52A
100
AcDbEntity
  8
0
370
     9
  6
Continuous
 62
     7
100
AcDbBlockReference
  2
*G21
 10
0.0
 20
0.0
 30
0.0
  0
INSERT
  5
540
100
AcDbEntity
  8
0
370
     9
  6
Continuous
 62
     7
100
AcDbBlockReference
  2
*G24
 10
0.0
 20
0.0
 30
0.0
  0
ENDSEC
  0
SECTION
  2
OBJECTS
  0
DICTIONARY
  5
19
100
AcDbDictionary
280
     0
281
     1
  3
ACAD_GROUP
350
1A
  3
ACAD_MLINESTYLE
350
1B
  3
ACAD_LAYOUT
350
1E
  3
ACAD_PLOTSETTINGS
350
22
  3
ACAD_PLOTSTYLENAME
350
1F
  3
ACAD_WIPEOUT_VARS
350
23
  0
DICTIONARY
  5
1A
102
{ACAD_REACTORS
330
19
102
}
100
AcDbDictionary
280
     0
281
     1
  0
DICTIONARY
  5
1B
102
{ACAD_REACTORS
330
19
102
}
100
AcDbDictionary
280
     0
281
     1
  3
Standard
350
1C
  0
MLINESTYLE
  5
1C
102
{ACAD_REACTORS
330
1B
102
}
100
AcDbMlineStyle
  2
Standard
 70
     0
  3

 62
     0
 51
90.0
 52
90.0
 71
     2
 49
0.5
 62
   256
  6
ByLayer
 49
-0.5
 62
   256
  6
ByLayer
  0
ACDBDICTIONARYWDFLT
  5
1F
102
{ACAD_REACTORS
330
19
102
}
100
AcDbDictionary
281
     1
  3
Normal
350
1D
100
AcDbDictionaryWithDefault
340
1D
  0
ACDBPLACEHOLDER
  5
1D
102
{ACAD_REACTORS
330
1F
102
}
  0
LAYOUT
  5
20
102
{ACAD_REACTORS
330
1E
102
}
100
AcDbPlotSettings
  1

  2

  4

  6

 40
0.0
 41
0.0
 42
0.0
 43
0.0
 44
0.0
 45
0.0
 46
0.0
 47
0.0
 48
0.0
 49
0.0
140
0.0
141
0.0
142
1.0
143
1.0
 70
  1024
 72
     0
 73
     0
 74
     0
  7

 75
     0
147
1.0
148
0.0
149
0.0
100
AcDbLayout
  1
Model
 70
     0
 71
     0
 10
0.0
 20
0.0
 11
0.0
 21
0.0
 12
0.0
 22
0.0
 32
0.0
 14
0.0
 24
0.0
 34
0.0
 15
0.0
 25
0.0
 35
0.0
146
0.0
 13
0.0
 23
0.0
 33
0.0
 16
0.0
 26
0.0
 36
0.0
 17
0.0
 27
0.0
 37
0.0
 76
     0
330
A
331
0
345
0
346
0
  0
LAYOUT
  5
21
102
{ACAD_REACTORS
330
1E
102
}
100
AcDbPlotSettings
  1

  2

  4

  6

 40
0.0
 41
0.0
 42
0.0
 43
0.0
 44
0.0
 45
0.0
 46
0.0
 47
0.0
 48
0.0
 49
0.0
140
0.0
141
0.0
142
1.0
143
1.0
 70
     0
 72
     0
 73
     0
 74
     0
  7

 75
     0
147
1.0
148
0.0
149
0.0
100
AcDbLayout
  1
Layout1
 70
     0
 71
     0
 10
0.0
 20
0.0
 11
0.0
 21
0.0
 12
0.0
 22
0.0
 32
0.0
 14
0.0
 24
0.0
 34
0.0
 15
0.0
 25
0.0
 35
0.0
146
0.0
 13
0.0
 23
0.0
 33
0.0
 16
0.0
 26
0.0
 36
0.0
 17
0.0
 27
0.0
 37
0.0
 76
     0
330
B
331
0
345
0
346
0
  0
DICTIONARY
  5
1E
102
{ACAD_REACTORS
330
19
102
}
100
AcDbDictionary
280
     0
281
     1
  3
Layout1
350
21
  3
Model
350
20
  0
DICTIONARY
  5
22
102
{ACAD_REACTORS
330
19
102
}
100
AcDbDictionary
280
     0
281
     1
  0
WIPEOUTVARIABLES
  5
23
100
AcDbWipeoutVariables
 70
     1
  0
ENDSEC
  0
EOF
